  0
SECTION
  2
HEADER
  9
$ACADVER
  1
AC1015
  9
$DWGCODEPAGE
  3
ANSI_1250
  9
$LWDISPLAY
 290
1
  9
$HANDSEED
  5
1912
  9
$EXTMIN
 10
6537600.0
 20
5570500.0
  9
$EXTMAX
 10
6538400.0
 20
5571500.0
  0
ENDSEC
  0
SECTION
  2
TABLES
  0
TABLE
  2
VPORT
  5
8
 100
AcDbSymbolTable
 70
1
  0
VPORT
  5
90
 100
AcDbSymbolTableRecord
 100
AcDbViewportTableRecord
  2
*Active
 70
0
 10
0.0
 20
0.0
 11
1.0
 21
1.0
 12
6538066.25
 22
5570930.0
 13
0.0
 23
0.0
 14
10.0
 24
10.0
 15
10.0
 25
10.0
 16
0.0
 26
0.0
 36
1.0
 17
0.0
 27
0.0
 37
0.0
 40
757.0
 41
1.982
 42
50.0
 43
0.0
 44
0.0
 50
0.0
 51
0.0
 71
0
 72
100
 73
1
 74
3
 75
0
 76
0
 77
0
 78
0
 281
0
 65
1
 110
0.0
 120
0.0
 130
0.0
 111
1.0
 121
0.0
 131
0.0
 112
0.0
 122
1.0
 132
0.0
 79
0
 146
0.0
  0
ENDTAB
  0
TABLE
  2
LTYPE
  5
5
 100
AcDbSymbolTable
 70
21
  0
LTYPE
  5
14
 100
AcDbSymbolTableRecord
 100
AcDbLinetypeTableRecord
  2
BYBLOCK
  3

 70
0
 72
65
 73
0
 40
0.0
  0
LTYPE
  5
15
 100
AcDbSymbolTableRecord
 100
AcDbLinetypeTableRecord
  2
BYLAYER
  3

 70
0
 72
65
 73
0
 40
0.0
  0
LTYPE
  5
16
 100
AcDbSymbolTableRecord
 100
AcDbLinetypeTableRecord
  2
CONTINUOUS
  3

 70
0
 72
65
 73
0
 40
0.0
  0
LTYPE
  5
91
 100
AcDbSymbolTableRecord
 100
AcDbLinetypeTableRecord
  2
219-1000
  3
219-1000
 70
0
 72
65
 73
0
 40
0.0
  0
LTYPE
  5
92
 100
AcDbSymbolTableRecord
 100
AcDbLinetypeTableRecord
  2
217-1000
  3
217-1000
 70
0
 72
65
 73
2
 40
2.8
 49
2.1
 74
0
 49
-0.7
 74
0
  0
LTYPE
  5
93
 100
AcDbSymbolTableRecord
 100
AcDbLinetypeTableRecord
  2
2.1_0.7
  3
2.1,0.7
 70
0
 72
65
 73
2
 40
2.8
 49
2.1
 74
0
 49
-0.7
 74
0
  0
LTYPE
  5
94
 100
AcDbSymbolTableRecord
 100
AcDbLinetypeTableRecord
  2
217a-1000
  3
217a-1000
 70
0
 72
65
 73
0
 40
0.0
  0
LTYPE
  5
95
 100
AcDbSymbolTableRecord
 100
AcDbLinetypeTableRecord
  2
218-1000
  3
218-1000
 70
0
 72
65
 73
2
 40
1.4
 49
0.7
 74
0
 49
-0.7
 74
0
  0
LTYPE
  5
96
 100
AcDbSymbolTableRecord
 100
AcDbLinetypeTableRecord
  2
0.7_0.7
  3
0.7,0.7
 70
0
 72
65
 73
2
 40
1.4
 49
0.7
 74
0
 49
-0.7
 74
0
  0
LTYPE
  5
97
 100
AcDbSymbolTableRecord
 100
AcDbLinetypeTableRecord
  2
218a-1000
  3
218a-1000
 70
0
 72
65
 73
2
 40
1.4
 49
0.7
 74
0
 49
-0.7
 74
0
  0
LTYPE
  5
98
 100
AcDbSymbolTableRecord
 100
AcDbLinetypeTableRecord
  2
902-1000
  3
902-1000
 70
0
 72
65
 73
3
 40
10.0
 49
5.0
 74
0
 49
0.0
 74
4
 75
1
 340
29
 46
1.0
 50
0.0
 44
0.0
 45
0.0
 49
5.0
 74
0
  0
LTYPE
  5
99
 100
AcDbSymbolTableRecord
 100
AcDbLinetypeTableRecord
  2
450-1000k
  3
Kształt
 70
0
 72
65
 73
3
 40
7.0
 49
3.5
 74
0
 49
0.0
 74
4
 75
7
 340
29
 46
1.0
 50
0.0
 44
0.0
 45
0.0
 49
3.5
 74
0
  0
LTYPE
  5
9A
 100
AcDbSymbolTableRecord
 100
AcDbLinetypeTableRecord
  2
450-1000
  3
450-1000
 70
0
 72
65
 73
0
 40
0.0
  0
LTYPE
  5
9B
 100
AcDbSymbolTableRecord
 100
AcDbLinetypeTableRecord
  2
823-1000
  3
823-1000
 70
0
 72
65
 73
2
 40
2.45
 49
1.75
 74
0
 49
-0.7
 74
0
  0
LTYPE
  5
9C
 100
AcDbSymbolTableRecord
 100
AcDbLinetypeTableRecord
  2
mz3.0_1.0
  3
mz3.0,1.0
 70
0
 72
65
 73
2
 40
4.0
 49
3.0
 74
0
 49
-1.0
 74
0
  0
LTYPE
  5
9D
 100
AcDbSymbolTableRecord
 100
AcDbLinetypeTableRecord
  2
2.0_1.0
  3
2.0,1.0
 70
0
 72
65
 73
2
 40
3.0
 49
2.0
 74
0
 49
-1.0
 74
0
  0
LTYPE
  5
9E
 100
AcDbSymbolTableRecord
 100
AcDbLinetypeTableRecord
  2
1.0_1.0
  3
1.0,1.0
 70
0
 72
65
 73
2
 40
2.0
 49
1.0
 74
0
 49
-1.0
 74
0
  0
LTYPE
  5
9F
 100
AcDbSymbolTableRecord
 100
AcDbLinetypeTableRecord
  2
ok01_1000
  3
ok01_1000
 70
0
 72
65
 73
3
 40
5.0
 49
2.5
 74
0
 49
0.0
 74
4
 75
16
 340
29
 46
1.0
 50
0.0
 44
0.0
 45
0.0
 49
2.5
 74
0
  0
LTYPE
  5
A0
 100
AcDbSymbolTableRecord
 100
AcDbLinetypeTableRecord
  2
ktok02-1000
  3
ktok02-1000
 70
0
 72
65
 73
0
 40
0.0
  0
LTYPE
  5
A1
 100
AcDbSymbolTableRecord
 100
AcDbLinetypeTableRecord
  2
219-500
  3
219-500
 70
0
 72
65
 73
0
 40
0.0
  0
LTYPE
  5
A2
 100
AcDbSymbolTableRecord
 100
AcDbLinetypeTableRecord
  2
mz1.8_0.7
  3
mz1.8,0.7
 70
0
 72
65
 73
2
 40
2.5
 49
1.8
 74
0
 49
-0.7
 74
0
  0
ENDTAB
  0
TABLE
  2
LAYER
  5
2
 100
AcDbSymbolTable
 70
1
  0
LAYER
  5
10
 100
AcDbSymbolTableRecord
 100
AcDbLayerTableRecord
  2
0
 70
0
 62
2
  6
Continuous
 370
5
 390
F
  0
ENDTAB
  0
TABLE
  2
STYLE
  5
3
 100
AcDbSymbolTable
 70
2
  0
STYLE
  5
11
 100
AcDbSymbolTableRecord
 100
AcDbTextStyleTableRecord
  2
STANDARD
 70
0
 40
0.0
 41
0.75
 50
0.0
 71
0
 42
2.5
  3
txt
  4

  0
STYLE
  5
29
 100
AcDbSymbolTableRecord
 100
AcDbTextStyleTableRecord
  2

 70
1
 40
0.0
 41
0.75
 50
0.0
 71
0
 42
2.5
  3
ksztalty.shx
  4

  0
ENDTAB
  0
TABLE
  2
VIEW
  5
6
 100
AcDbSymbolTable
 70
0
  0
ENDTAB
  0
TABLE
  2
UCS
  5
7
 100
AcDbSymbolTable
 70
0
  0
ENDTAB
  0
TABLE
  2
APPID
  5
9
 100
AcDbSymbolTable
 70
1
  0
APPID
  5
A3
 100
AcDbSymbolTableRecord
 100
AcDbRegAppTableRecord
  2
ACAD
 70
0
  0
ENDTAB
  0
TABLE
  2
DIMSTYLE
  5
A
 100
AcDbSymbolTable
 70
1
 100
AcDbDimStyleTable
 71
0
  0
DIMSTYLE
 105
27
 100
AcDbSymbolTableRecord
 100
AcDbDimStyleTableRecord
  2
Standard
 41
1.0
 42
1.0
 43
3.75
 44
1.0
 70
0
 73
0
 74
0
 77
1
 78
8
 140
1.0
 141
2.5
 143
0.039
 147
1.0
 171
3
 172
1
 271
2
 272
2
 274
3
 278
44
 283
0
 284
8
 340
11
  0
ENDTAB
  0
TABLE
  2
BLOCK_RECORD
  5
1
 100
AcDbSymbolTable
 70
18
 330
1
  0
BLOCK_RECORD
  5
1F
 100
AcDbSymbolTableRecord
 100
AcDbBlockTableRecord
  2
*Model_Space
 340
22
 330
1
  0
BLOCK_RECORD
  5
1B
 100
AcDbSymbolTableRecord
 100
AcDbBlockTableRecord
  2
*Paper_Space
 340
1E
 330
1
  0
BLOCK_RECORD
  5
23
 100
AcDbSymbolTableRecord
 100
AcDbBlockTableRecord
  2
*Paper_Space0
 340
26
 330
1
  0
BLOCK_RECORD
  5
A4
 100
AcDbSymbolTableRecord
 100
AcDbBlockTableRecord
  2
202
 340
0
 330
1
  0
BLOCK_RECORD
  5
A5
 100
AcDbSymbolTableRecord
 100
AcDbBlockTableRecord
  2
203
 340
0
 330
1
  0
BLOCK_RECORD
  5
A6
 100
AcDbSymbolTableRecord
 100
AcDbBlockTableRecord
  2
510
 340
0
 330
1
  0
BLOCK_RECORD
  5
A7
 100
AcDbSymbolTableRecord
 100
AcDbBlockTableRecord
  2
516
 340
0
 330
1
  0
BLOCK_RECORD
  5
A8
 100
AcDbSymbolTableRecord
 100
AcDbBlockTableRecord
  2
OK02
 340
0
 330
1
  0
BLOCK_RECORD
  5
A9
 100
AcDbSymbolTableRecord
 100
AcDbBlockTableRecord
  2
OP011
 340
0
 330
1
  0
BLOCK_RECORD
  5
AA
 100
AcDbSymbolTableRecord
 100
AcDbBlockTableRecord
  2
OP021
 340
0
 330
1
  0
BLOCK_RECORD
  5
AB
 100
AcDbSymbolTableRecord
 100
AcDbBlockTableRecord
  2
PE04
 340
0
 330
1
  0
BLOCK_RECORD
  5
AC
 100
AcDbSymbolTableRecord
 100
AcDbBlockTableRecord
  2
RAMKA1000K
 340
0
 330
1
  0
BLOCK_RECORD
  5
AD
 100
AcDbSymbolTableRecord
 100
AcDbBlockTableRecord
  2
SM011
 340
0
 330
1
  0
BLOCK_RECORD
  5
AE
 100
AcDbSymbolTableRecord
 100
AcDbBlockTableRecord
  2
US13
 340
0
 330
1
  0
BLOCK_RECORD
  5
AF
 100
AcDbSymbolTableRecord
 100
AcDbBlockTableRecord
  2
US17
 340
0
 330
1
  0
BLOCK_RECORD
  5
B0
 100
AcDbSymbolTableRecord
 100
AcDbBlockTableRecord
  2
US22
 340
0
 330
1
  0
BLOCK_RECORD
  5
B1
 100
AcDbSymbolTableRecord
 100
AcDbBlockTableRecord
  2
US25
 340
0
 330
1
  0
BLOCK_RECORD
  5
B2
 100
AcDbSymbolTableRecord
 100
AcDbBlockTableRecord
  2
W_POL
 340
0
  0
ENDTAB
  0
ENDSEC
  0
SECTION
  2
BLOCKS
  0
BLOCK
  5
20
 100
AcDbEntity
  8
0
 100
AcDbBlockBegin
  2
*Model_Space
 70
0
 10
0.0
 20
0.0
  3
*Model_Space
  1

  0
ENDBLK
  5
B3
 100
AcDbEntity
  8
0
 100
AcDbBlockEnd
  0
BLOCK
  5
1C
 100
AcDbEntity
  8
0
 100
AcDbBlockBegin
  2
*Paper_Space
 70
0
 10
0.0
 20
0.0
  3
*Paper_Space
  1

  0
ENDBLK
  5
B4
 100
AcDbEntity
  8
0
 100
AcDbBlockEnd
  0
BLOCK
  5
24
 100
AcDbEntity
  8
0
 100
AcDbBlockBegin
  2
*Paper_Space0
 70
0
 10
0.0
 20
0.0
  3
*Paper_Space0
  1

  0
ENDBLK
  5
B5
 100
AcDbEntity
  8
0
 100
AcDbBlockEnd
  0
BLOCK
  5
B6
 100
AcDbEntity
  8
0
 100
AcDbBlockBegin
  2
202
 70
0
 10
0.0
 20
0.0
  3
202
  1

  0
CIRCLE
  5
B7
 100
AcDbEntity
  8
0
  6
Continuous
 62
0
 370
0
 100
AcDbCircle
 10
0.0
 20
0.0
 40
0.4
  0
ENDBLK
  5
B8
 100
AcDbEntity
  8
0
 100
AcDbBlockEnd
  0
BLOCK
  5
B9
 100
AcDbEntity
  8
0
 100
AcDbBlockBegin
  2
203
 70
0
 10
0.0
 20
0.0
  3
203
  1

  0
HATCH
  5
BA
 62
0
330
0
100
AcDbEntity
6
Continuous
370
     0
100
AcDbHatch
10
0
20
0
30
0
210
0.0
220
0.0
230
1.0
2
SOLID
70
     1
71
     0
91
        1
92
        1
93
        1
72
     2
10
0
20
1.192093E-10
40
0.09
50
0.0
51
360.0
73
     1
97
        0
75
     0
76
     1
98
        0
  0
ENDBLK
  5
BB
 100
AcDbEntity
  8
0
 100
AcDbBlockEnd
  0
BLOCK
  5
BC
 100
AcDbEntity
  8
0
 100
AcDbBlockBegin
  2
510
 70
0
 10
0.0
 20
0.0
  3
510
  1

  0
CIRCLE
  5
BD
 100
AcDbEntity
  8
0
  6
Continuous
 62
0
 370
0
 100
AcDbCircle
 10
0.0
 20
0.0
 40
0.35
  0
ENDBLK
  5
BE
 100
AcDbEntity
  8
0
 100
AcDbBlockEnd
  0
BLOCK
  5
BF
 100
AcDbEntity
  8
0
 100
AcDbBlockBegin
  2
516
 70
0
 10
0.0
 20
0.0
  3
516
  1

  0
LINE
  5
C0
 100
AcDbEntity
  8
0
  6
Continuous
 62
0
 370
0
 100
AcDbLine
 10
1.05
 20
0.0
 11
9.05
 21
0.0
  0
LINE
  5
C1
 100
AcDbEntity
  8
0
  6
Continuous
 62
0
 370
0
 100
AcDbLine
 10
5.05
 20
0.0
 11
3.919
 21
1.131
  0
LINE
  5
C2
 100
AcDbEntity
  8
0
  6
Continuous
 62
0
 370
0
 100
AcDbLine
 10
5.05
 20
0.0
 11
3.919
 21
-1.131
  0
ENDBLK
  5
C3
 100
AcDbEntity
  8
0
 100
AcDbBlockEnd
  0
BLOCK
  5
C4
 100
AcDbEntity
  8
0
 100
AcDbBlockBegin
  2
OK02
 70
0
 10
0.0
 20
0.0
  3
OK02
  1

  0
ARC
  5
C5
 100
AcDbEntity
  8
0
  6
Continuous
 62
0
 370
0
 100
AcDbCircle
 10
-2.0
 20
-0.0
 40
2.0
 100
AcDbArc
 50
0.0
 51
60.0
  0
ARC
  5
C6
 100
AcDbEntity
  8
0
  6
Continuous
 62
0
 370
0
 100
AcDbCircle
 10
2.0
 20
-0.0
 40
2.0
 100
AcDbArc
 50
120.0
 51
180.0
  0
ENDBLK
  5
C7
 100
AcDbEntity
  8
0
 100
AcDbBlockEnd
  0
BLOCK
  5
C8
 100
AcDbEntity
  8
0
 100
AcDbBlockBegin
  2
OP011
 70
0
 10
0.0
 20
0.0
  3
OP011
  1

  0
LINE
  5
C9
 100
AcDbEntity
  8
0
  6
Continuous
 62
0
 370
13
 100
AcDbLine
 10
-0.2
 20
-0.275
 11
0.0
 21
-1.155
  0
LINE
  5
CA
 100
AcDbEntity
  8
0
  6
Continuous
 62
0
 370
13
 100
AcDbLine
 10
0.0
 20
-1.155
 11
0.2
 21
-0.275
  0
LINE
  5
CB
 100
AcDbEntity
  8
0
  6
Continuous
 62
0
 370
13
 100
AcDbLine
 10
-0.2
 20
-0.275
 11
-1.099
 21
-0.357
  0
LINE
  5
CC
 100
AcDbEntity
  8
0
  6
Continuous
 62
0
 370
13
 100
AcDbLine
 10
-1.099
 20
-0.357
 11
-0.324
 21
0.105
  0
LINE
  5
CD
 100
AcDbEntity
  8
0
  6
Continuous
 62
0
 370
13
 100
AcDbLine
 10
-0.324
 20
0.105
 11
-0.679
 21
0.935
  0
LINE
  5
CE
 100
AcDbEntity
  8
0
  6
Continuous
 62
0
 370
13
 100
AcDbLine
 10
-0.679
 20
0.935
 11
0.0
 21
0.341
  0
LINE
  5
CF
 100
AcDbEntity
  8
0
  6
Continuous
 62
0
 370
13
 100
AcDbLine
 10
0.0
 20
0.341
 11
0.679
 21
0.935
  0
LINE
  5
D0
 100
AcDbEntity
  8
0
  6
Continuous
 62
0
 370
13
 100
AcDbLine
 10
0.679
 20
0.935
 11
0.324
 21
0.105
  0
LINE
  5
D1
 100
AcDbEntity
  8
0
  6
Continuous
 62
0
 370
13
 100
AcDbLine
 10
0.324
 20
0.105
 11
1.099
 21
-0.357
  0
LINE
  5
D2
 100
AcDbEntity
  8
0
  6
Continuous
 62
0
 370
13
 100
AcDbLine
 10
1.099
 20
-0.357
 11
0.2
 21
-0.275
  0
HATCH
  5
D3
 62
0
330
0
100
AcDbEntity
6
Continuous
370
    13
100
AcDbHatch
10
0
20
0
30
0
210
0.0
220
0.0
230
1.0
2
SOLID
70
     1
71
     0
91
        1
92
        1
93
        1
72
     2
10
0
20
0
40
0.1
50
0.0
51
360.0
73
     1
97
        0
75
     0
76
     1
98
        0
  0
ENDBLK
  5
D4
 100
AcDbEntity
  8
0
 100
AcDbBlockEnd
  0
BLOCK
  5
D5
 100
AcDbEntity
  8
0
 100
AcDbBlockBegin
  2
OP021
 70
0
 10
0.0
 20
0.0
  3
OP021
  1

  0
HATCH
  5
D6
 62
0
100
AcDbEntity
370
    13
6
Continuous
100
AcDbHatch
10
0
20
0
30
0
210
0.0
220
0.0
230
1.0
2
SOLID
70
     1
71
     0
91
        1
92
        1
93
        1
72
     2
10
0
20
0
40
0.1
50
0.0
51
360.0
73
     1
97
        0
75
     0
76
     1
98
        0
  0
ARC
  5
D7
 100
AcDbEntity
  8
0
  6
Continuous
 62
0
 370
-3
 100
AcDbCircle
 10
-0.294
 20
-0.404
 40
0.5
 100
AcDbArc
 50
182.272
 51
285.64
  0
ARC
  5
D8
 100
AcDbEntity
  8
0
  6
Continuous
 62
0
 370
-3
 100
AcDbCircle
 10
0.0
 20
0.5
 40
0.5
 100
AcDbArc
 50
38.316
 51
141.684
  0
ARC
  5
D9
 100
AcDbEntity
  8
0
  6
Continuous
 62
0
 370
-3
 100
AcDbCircle
 10
-0.476
 20
0.154
 40
0.5
 100
AcDbArc
 50
110.388
 51
213.756
  0
ARC
  5
DA
 100
AcDbEntity
  8
0
  6
Continuous
 62
0
 370
-3
 100
AcDbCircle
 10
0.294
 20
-0.404
 40
0.5
 100
AcDbArc
 50
254.36
 51
357.728
  0
ARC
  5
DB
 100
AcDbEntity
  8
0
  6
Continuous
 62
0
 370
-3
 100
AcDbCircle
 10
0.476
 20
0.154
 40
0.5
 100
AcDbArc
 50
326.244
 51
69.612
  0
ARC
  5
DC
 100
AcDbEntity
  8
0
  6
Continuous
 62
0
 370
-3
 100
AcDbCircle
 10
0.294
 20
-0.404
 40
0.5
 100
AcDbArc
 50
254.36
 51
357.728
  0
ENDBLK
  5
DD
 100
AcDbEntity
  8
0
 100
AcDbBlockEnd
  0
BLOCK
  5
DE
 100
AcDbEntity
  8
0
 100
AcDbBlockBegin
  2
PE04
 70
0
 10
0.0
 20
0.0
  3
PE04
  1

  0
LINE
  5
DF
 100
AcDbEntity
  8
0
  6
Continuous
 62
0
 370
13
 100
AcDbLine
 10
5.1
 20
0.0
 11
6.5
 21
0.0
  0
LINE
  5
E0
 100
AcDbEntity
  8
0
  6
Continuous
 62
0
 370
13
 100
AcDbLine
 10
6.5
 20
0.0
 11
5.288
 21
-0.7
  0
LINE
  5
E1
 100
AcDbEntity
  8
0
  6
Continuous
 62
0
 370
13
 100
AcDbLine
 10
6.5
 20
0.0
 11
5.288
 21
0.7
  0
LINE
  5
E2
 100
AcDbEntity
  8
0
  6
Continuous
 62
0
 370
13
 100
AcDbLine
 10
6.5
 20
0.0
 11
7.0
 21
0.0
  0
LINE
  5
E3
 100
AcDbEntity
  8
0
  6
Continuous
 62
0
 370
13
 100
AcDbLine
 10
3.7
 20
0.0
 11
5.1
 21
0.0
  0
LINE
  5
E4
 100
AcDbEntity
  8
0
  6
Continuous
 62
0
 370
13
 100
AcDbLine
 10
2.3
 20
0.0
 11
3.7
 21
0.0
  0
LINE
  5
E5
 100
AcDbEntity
  8
0
  6
Continuous
 62
0
 370
13
 100
AcDbLine
 10
0.9
 20
0.0
 11
2.3
 21
0.0
  0
LINE
  5
E6
 100
AcDbEntity
  8
0
  6
Continuous
 62
0
 370
13
 100
AcDbLine
 10
0.9
 20
0.0
 11
0.0
 21
0.0
  0
ENDBLK
  5
E7
 100
AcDbEntity
  8
0
 100
AcDbBlockEnd
  0
BLOCK
  5
E8
 100
AcDbEntity
  8
0
 100
AcDbBlockBegin
  2
RAMKA1000K
 70
0
 10
0.0
 20
0.0
  3
RAMKA1000K
  1

  0
LINE
  5
E9
 100
AcDbEntity
  8
0
 62
0
 100
AcDbLine
 10
0.0
 20
0.0
 11
0.0
 21
5.0
  0
LINE
  5
EA
 100
AcDbEntity
  8
0
 62
0
 100
AcDbLine
 10
0.0
 20
0.0
 11
5.0
 21
0.0
  0
LINE
  5
EB
 100
AcDbEntity
  8
0
 62
0
 100
AcDbLine
 10
0.0
 20
95.0
 11
0.0
 21
105.0
  0
LINE
  5
EC
 100
AcDbEntity
  8
0
 62
0
 100
AcDbLine
 10
0.0
 20
100.0
 11
5.0
 21
100.0
  0
LINE
  5
ED
 100
AcDbEntity
  8
0
 62
0
 100
AcDbLine
 10
0.0
 20
195.0
 11
0.0
 21
205.0
  0
LINE
  5
EE
 100
AcDbEntity
  8
0
 62
0
 100
AcDbLine
 10
0.0
 20
200.0
 11
5.0
 21
200.0
  0
LINE
  5
EF
 100
AcDbEntity
  8
0
 62
0
 100
AcDbLine
 10
0.0
 20
295.0
 11
0.0
 21
305.0
  0
LINE
  5
F0
 100
AcDbEntity
  8
0
 62
0
 100
AcDbLine
 10
0.0
 20
300.0
 11
5.0
 21
300.0
  0
LINE
  5
F1
 100
AcDbEntity
  8
0
 62
0
 100
AcDbLine
 10
0.0
 20
395.0
 11
0.0
 21
405.0
  0
LINE
  5
F2
 100
AcDbEntity
  8
0
 62
0
 100
AcDbLine
 10
0.0
 20
400.0
 11
5.0
 21
400.0
  0
LINE
  5
F3
 100
AcDbEntity
  8
0
 62
0
 100
AcDbLine
 10
0.0
 20
495.0
 11
0.0
 21
500.0
  0
LINE
  5
F4
 100
AcDbEntity
  8
0
 62
0
 100
AcDbLine
 10
0.0
 20
500.0
 11
5.0
 21
500.0
  0
LINE
  5
F5
 100
AcDbEntity
  8
0
 62
0
 100
AcDbLine
 10
100.0
 20
0.0
 11
100.0
 21
5.0
  0
LINE
  5
F6
 100
AcDbEntity
  8
0
 62
0
 100
AcDbLine
 10
95.0
 20
0.0
 11
105.0
 21
0.0
  0
LINE
  5
F7
 100
AcDbEntity
  8
0
 62
0
 100
AcDbLine
 10
100.0
 20
95.0
 11
100.0
 21
105.0
  0
LINE
  5
F8
 100
AcDbEntity
  8
0
 62
0
 100
AcDbLine
 10
95.0
 20
100.0
 11
105.0
 21
100.0
  0
LINE
  5
F9
 100
AcDbEntity
  8
0
 62
0
 100
AcDbLine
 10
100.0
 20
195.0
 11
100.0
 21
205.0
  0
LINE
  5
FA
 100
AcDbEntity
  8
0
 62
0
 100
AcDbLine
 10
95.0
 20
200.0
 11
105.0
 21
200.0
  0
LINE
  5
FB
 100
AcDbEntity
  8
0
 62
0
 100
AcDbLine
 10
100.0
 20
295.0
 11
100.0
 21
305.0
  0
LINE
  5
FC
 100
AcDbEntity
  8
0
 62
0
 100
AcDbLine
 10
95.0
 20
300.0
 11
105.0
 21
300.0
  0
LINE
  5
FD
 100
AcDbEntity
  8
0
 62
0
 100
AcDbLine
 10
100.0
 20
395.0
 11
100.0
 21
405.0
  0
LINE
  5
FE
 100
AcDbEntity
  8
0
 62
0
 100
AcDbLine
 10
95.0
 20
400.0
 11
105.0
 21
400.0
  0
LINE
  5
FF
 100
AcDbEntity
  8
0
 62
0
 100
AcDbLine
 10
100.0
 20
495.0
 11
100.0
 21
500.0
  0
LINE
  5
100
 100
AcDbEntity
  8
0
 62
0
 100
AcDbLine
 10
95.0
 20
500.0
 11
105.0
 21
500.0
  0
LINE
  5
101
 100
AcDbEntity
  8
0
 62
0
 100
AcDbLine
 10
200.0
 20
0.0
 11
200.0
 21
5.0
  0
LINE
  5
102
 100
AcDbEntity
  8
0
 62
0
 100
AcDbLine
 10
195.0
 20
0.0
 11
205.0
 21
0.0
  0
LINE
  5
103
 100
AcDbEntity
  8
0
 62
0
 100
AcDbLine
 10
200.0
 20
95.0
 11
200.0
 21
105.0
  0
LINE
  5
104
 100
AcDbEntity
  8
0
 62
0
 100
AcDbLine
 10
195.0
 20
100.0
 11
205.0
 21
100.0
  0
LINE
  5
105
 100
AcDbEntity
  8
0
 62
0
 100
AcDbLine
 10
200.0
 20
195.0
 11
200.0
 21
205.0
  0
LINE
  5
106
 100
AcDbEntity
  8
0
 62
0
 100
AcDbLine
 10
195.0
 20
200.0
 11
205.0
 21
200.0
  0
LINE
  5
107
 100
AcDbEntity
  8
0
 62
0
 100
AcDbLine
 10
200.0
 20
295.0
 11
200.0
 21
305.0
  0
LINE
  5
108
 100
AcDbEntity
  8
0
 62
0
 100
AcDbLine
 10
195.0
 20
300.0
 11
205.0
 21
300.0
  0
LINE
  5
109
 100
AcDbEntity
  8
0
 62
0
 100
AcDbLine
 10
200.0
 20
395.0
 11
200.0
 21
405.0
  0
LINE
  5
10A
 100
AcDbEntity
  8
0
 62
0
 100
AcDbLine
 10
195.0
 20
400.0
 11
205.0
 21
400.0
  0
LINE
  5
10B
 100
AcDbEntity
  8
0
 62
0
 100
AcDbLine
 10
200.0
 20
495.0
 11
200.0
 21
500.0
  0
LINE
  5
10C
 100
AcDbEntity
  8
0
 62
0
 100
AcDbLine
 10
195.0
 20
500.0
 11
205.0
 21
500.0
  0
LINE
  5
10D
 100
AcDbEntity
  8
0
 62
0
 100
AcDbLine
 10
300.0
 20
0.0
 11
300.0
 21
5.0
  0
LINE
  5
10E
 100
AcDbEntity
  8
0
 62
0
 100
AcDbLine
 10
295.0
 20
0.0
 11
305.0
 21
0.0
  0
LINE
  5
10F
 100
AcDbEntity
  8
0
 62
0
 100
AcDbLine
 10
300.0
 20
95.0
 11
300.0
 21
105.0
  0
LINE
  5
110
 100
AcDbEntity
  8
0
 62
0
 100
AcDbLine
 10
295.0
 20
100.0
 11
305.0
 21
100.0
  0
LINE
  5
111
 100
AcDbEntity
  8
0
 62
0
 100
AcDbLine
 10
300.0
 20
195.0
 11
300.0
 21
205.0
  0
LINE
  5
112
 100
AcDbEntity
  8
0
 62
0
 100
AcDbLine
 10
295.0
 20
200.0
 11
305.0
 21
200.0
  0
LINE
  5
113
 100
AcDbEntity
  8
0
 62
0
 100
AcDbLine
 10
300.0
 20
295.0
 11
300.0
 21
305.0
  0
LINE
  5
114
 100
AcDbEntity
  8
0
 62
0
 100
AcDbLine
 10
295.0
 20
300.0
 11
305.0
 21
300.0
  0
LINE
  5
115
 100
AcDbEntity
  8
0
 62
0
 100
AcDbLine
 10
300.0
 20
395.0
 11
300.0
 21
405.0
  0
LINE
  5
116
 100
AcDbEntity
  8
0
 62
0
 100
AcDbLine
 10
295.0
 20
400.0
 11
305.0
 21
400.0
  0
LINE
  5
117
 100
AcDbEntity
  8
0
 62
0
 100
AcDbLine
 10
300.0
 20
495.0
 11
300.0
 21
500.0
  0
LINE
  5
118
 100
AcDbEntity
  8
0
 62
0
 100
AcDbLine
 10
295.0
 20
500.0
 11
305.0
 21
500.0
  0
LINE
  5
119
 100
AcDbEntity
  8
0
 62
0
 100
AcDbLine
 10
400.0
 20
0.0
 11
400.0
 21
5.0
  0
LINE
  5
11A
 100
AcDbEntity
  8
0
 62
0
 100
AcDbLine
 10
395.0
 20
0.0
 11
405.0
 21
0.0
  0
LINE
  5
11B
 100
AcDbEntity
  8
0
 62
0
 100
AcDbLine
 10
400.0
 20
95.0
 11
400.0
 21
105.0
  0
LINE
  5
11C
 100
AcDbEntity
  8
0
 62
0
 100
AcDbLine
 10
395.0
 20
100.0
 11
405.0
 21
100.0
  0
LINE
  5
11D
 100
AcDbEntity
  8
0
 62
0
 100
AcDbLine
 10
400.0
 20
195.0
 11
400.0
 21
205.0
  0
LINE
  5
11E
 100
AcDbEntity
  8
0
 62
0
 100
AcDbLine
 10
395.0
 20
200.0
 11
405.0
 21
200.0
  0
LINE
  5
11F
 100
AcDbEntity
  8
0
 62
0
 100
AcDbLine
 10
400.0
 20
295.0
 11
400.0
 21
305.0
  0
LINE
  5
120
 100
AcDbEntity
  8
0
 62
0
 100
AcDbLine
 10
395.0
 20
300.0
 11
405.0
 21
300.0
  0
LINE
  5
121
 100
AcDbEntity
  8
0
 62
0
 100
AcDbLine
 10
400.0
 20
395.0
 11
400.0
 21
405.0
  0
LINE
  5
122
 100
AcDbEntity
  8
0
 62
0
 100
AcDbLine
 10
395.0
 20
400.0
 11
405.0
 21
400.0
  0
LINE
  5
123
 100
AcDbEntity
  8
0
 62
0
 100
AcDbLine
 10
400.0
 20
495.0
 11
400.0
 21
500.0
  0
LINE
  5
124
 100
AcDbEntity
  8
0
 62
0
 100
AcDbLine
 10
395.0
 20
500.0
 11
405.0
 21
500.0
  0
LINE
  5
125
 100
AcDbEntity
  8
0
 62
0
 100
AcDbLine
 10
500.0
 20
0.0
 11
500.0
 21
5.0
  0
LINE
  5
126
 100
AcDbEntity
  8
0
 62
0
 100
AcDbLine
 10
495.0
 20
0.0
 11
505.0
 21
0.0
  0
LINE
  5
127
 100
AcDbEntity
  8
0
 62
0
 100
AcDbLine
 10
500.0
 20
95.0
 11
500.0
 21
105.0
  0
LINE
  5
128
 100
AcDbEntity
  8
0
 62
0
 100
AcDbLine
 10
495.0
 20
100.0
 11
505.0
 21
100.0
  0
LINE
  5
129
 100
AcDbEntity
  8
0
 62
0
 100
AcDbLine
 10
500.0
 20
195.0
 11
500.0
 21
205.0
  0
LINE
  5
12A
 100
AcDbEntity
  8
0
 62
0
 100
AcDbLine
 10
495.0
 20
200.0
 11
505.0
 21
200.0
  0
LINE
  5
12B
 100
AcDbEntity
  8
0
 62
0
 100
AcDbLine
 10
500.0
 20
295.0
 11
500.0
 21
305.0
  0
LINE
  5
12C
 100
AcDbEntity
  8
0
 62
0
 100
AcDbLine
 10
495.0
 20
300.0
 11
505.0
 21
300.0
  0
LINE
  5
12D
 100
AcDbEntity
  8
0
 62
0
 100
AcDbLine
 10
500.0
 20
395.0
 11
500.0
 21
405.0
  0
LINE
  5
12E
 100
AcDbEntity
  8
0
 62
0
 100
AcDbLine
 10
495.0
 20
400.0
 11
505.0
 21
400.0
  0
LINE
  5
12F
 100
AcDbEntity
  8
0
 62
0
 100
AcDbLine
 10
500.0
 20
495.0
 11
500.0
 21
500.0
  0
LINE
  5
130
 100
AcDbEntity
  8
0
 62
0
 100
AcDbLine
 10
495.0
 20
500.0
 11
505.0
 21
500.0
  0
LINE
  5
131
 100
AcDbEntity
  8
0
 62
0
 100
AcDbLine
 10
600.0
 20
0.0
 11
600.0
 21
5.0
  0
LINE
  5
132
 100
AcDbEntity
  8
0
 62
0
 100
AcDbLine
 10
595.0
 20
0.0
 11
605.0
 21
0.0
  0
LINE
  5
133
 100
AcDbEntity
  8
0
 62
0
 100
AcDbLine
 10
600.0
 20
95.0
 11
600.0
 21
105.0
  0
LINE
  5
134
 100
AcDbEntity
  8
0
 62
0
 100
AcDbLine
 10
595.0
 20
100.0
 11
605.0
 21
100.0
  0
LINE
  5
135
 100
AcDbEntity
  8
0
 62
0
 100
AcDbLine
 10
600.0
 20
195.0
 11
600.0
 21
205.0
  0
LINE
  5
136
 100
AcDbEntity
  8
0
 62
0
 100
AcDbLine
 10
595.0
 20
200.0
 11
605.0
 21
200.0
  0
LINE
  5
137
 100
AcDbEntity
  8
0
 62
0
 100
AcDbLine
 10
600.0
 20
295.0
 11
600.0
 21
305.0
  0
LINE
  5
138
 100
AcDbEntity
  8
0
 62
0
 100
AcDbLine
 10
595.0
 20
300.0
 11
605.0
 21
300.0
  0
LINE
  5
139
 100
AcDbEntity
  8
0
 62
0
 100
AcDbLine
 10
600.0
 20
395.0
 11
600.0
 21
405.0
  0
LINE
  5
13A
 100
AcDbEntity
  8
0
 62
0
 100
AcDbLine
 10
595.0
 20
400.0
 11
605.0
 21
400.0
  0
LINE
  5
13B
 100
AcDbEntity
  8
0
 62
0
 100
AcDbLine
 10
600.0
 20
495.0
 11
600.0
 21
500.0
  0
LINE
  5
13C
 100
AcDbEntity
  8
0
 62
0
 100
AcDbLine
 10
595.0
 20
500.0
 11
605.0
 21
500.0
  0
LINE
  5
13D
 100
AcDbEntity
  8
0
 62
0
 100
AcDbLine
 10
700.0
 20
0.0
 11
700.0
 21
5.0
  0
LINE
  5
13E
 100
AcDbEntity
  8
0
 62
0
 100
AcDbLine
 10
695.0
 20
0.0
 11
705.0
 21
0.0
  0
LINE
  5
13F
 100
AcDbEntity
  8
0
 62
0
 100
AcDbLine
 10
700.0
 20
95.0
 11
700.0
 21
105.0
  0
LINE
  5
140
 100
AcDbEntity
  8
0
 62
0
 100
AcDbLine
 10
695.0
 20
100.0
 11
705.0
 21
100.0
  0
LINE
  5
141
 100
AcDbEntity
  8
0
 62
0
 100
AcDbLine
 10
700.0
 20
195.0
 11
700.0
 21
205.0
  0
LINE
  5
142
 100
AcDbEntity
  8
0
 62
0
 100
AcDbLine
 10
695.0
 20
200.0
 11
705.0
 21
200.0
  0
LINE
  5
143
 100
AcDbEntity
  8
0
 62
0
 100
AcDbLine
 10
700.0
 20
295.0
 11
700.0
 21
305.0
  0
LINE
  5
144
 100
AcDbEntity
  8
0
 62
0
 100
AcDbLine
 10
695.0
 20
300.0
 11
705.0
 21
300.0
  0
LINE
  5
145
 100
AcDbEntity
  8
0
 62
0
 100
AcDbLine
 10
700.0
 20
395.0
 11
700.0
 21
405.0
  0
LINE
  5
146
 100
AcDbEntity
  8
0
 62
0
 100
AcDbLine
 10
695.0
 20
400.0
 11
705.0
 21
400.0
  0
LINE
  5
147
 100
AcDbEntity
  8
0
 62
0
 100
AcDbLine
 10
700.0
 20
495.0
 11
700.0
 21
500.0
  0
LINE
  5
148
 100
AcDbEntity
  8
0
 62
0
 100
AcDbLine
 10
695.0
 20
500.0
 11
705.0
 21
500.0
  0
LINE
  5
149
 100
AcDbEntity
  8
0
 62
0
 100
AcDbLine
 10
800.0
 20
0.0
 11
800.0
 21
5.0
  0
LINE
  5
14A
 100
AcDbEntity
  8
0
 62
0
 100
AcDbLine
 10
795.0
 20
0.0
 11
800.0
 21
0.0
  0
LINE
  5
14B
 100
AcDbEntity
  8
0
 62
0
 100
AcDbLine
 10
800.0
 20
95.0
 11
800.0
 21
105.0
  0
LINE
  5
14C
 100
AcDbEntity
  8
0
 62
0
 100
AcDbLine
 10
795.0
 20
100.0
 11
800.0
 21
100.0
  0
LINE
  5
14D
 100
AcDbEntity
  8
0
 62
0
 100
AcDbLine
 10
800.0
 20
195.0
 11
800.0
 21
205.0
  0
LINE
  5
14E
 100
AcDbEntity
  8
0
 62
0
 100
AcDbLine
 10
795.0
 20
200.0
 11
800.0
 21
200.0
  0
LINE
  5
14F
 100
AcDbEntity
  8
0
 62
0
 100
AcDbLine
 10
800.0
 20
295.0
 11
800.0
 21
305.0
  0
LINE
  5
150
 100
AcDbEntity
  8
0
 62
0
 100
AcDbLine
 10
795.0
 20
300.0
 11
800.0
 21
300.0
  0
LINE
  5
151
 100
AcDbEntity
  8
0
 62
0
 100
AcDbLine
 10
800.0
 20
395.0
 11
800.0
 21
405.0
  0
LINE
  5
152
 100
AcDbEntity
  8
0
 62
0
 100
AcDbLine
 10
795.0
 20
400.0
 11
800.0
 21
400.0
  0
LINE
  5
153
 100
AcDbEntity
  8
0
 62
0
 100
AcDbLine
 10
800.0
 20
495.0
 11
800.0
 21
500.0
  0
LINE
  5
154
 100
AcDbEntity
  8
0
 62
0
 100
AcDbLine
 10
795.0
 20
500.0
 11
800.0
 21
500.0
  0
ENDBLK
  5
155
 100
AcDbEntity
  8
0
 100
AcDbBlockEnd
  0
BLOCK
  5
156
 100
AcDbEntity
  8
0
 100
AcDbBlockBegin
  2
SM011
 70
0
 10
0.0
 20
0.0
  3
SM011
  1

  0
LINE
  5
157
 100
AcDbEntity
  8
0
  6
Continuous
 62
0
 370
13
 100
AcDbLine
 10
0.849
 20
-0.849
 11
1.414
 21
-1.414
  0
LINE
  5
158
 100
AcDbEntity
  8
0
  6
Continuous
 62
0
 370
13
 100
AcDbLine
 10
0.849
 20
0.848
 11
1.414
 21
1.414
  0
LINE
  5
159
 100
AcDbEntity
  8
0
  6
Continuous
 62
0
 370
13
 100
AcDbLine
 10
-0.848
 20
0.848
 11
-1.414
 21
1.414
  0
LINE
  5
15A
 100
AcDbEntity
  8
0
  6
Continuous
 62
0
 370
13
 100
AcDbLine
 10
-0.848
 20
-0.849
 11
-1.414
 21
-1.414
  0
ENDBLK
  5
15B
 100
AcDbEntity
  8
0
 100
AcDbBlockEnd
  0
BLOCK
  5
15C
 100
AcDbEntity
  8
0
 100
AcDbBlockBegin
  2
US13
 70
0
 10
0.0
 20
0.0
  3
US13
  1

  0
CIRCLE
  5
15D
 100
AcDbEntity
  8
0
  6
Continuous
 62
0
 370
13
 100
AcDbCircle
 10
0.0
 20
0.0
 40
1.05
  0
CIRCLE
  5
15E
 100
AcDbEntity
  8
0
  6
Continuous
 62
0
 370
13
 100
AcDbCircle
 10
0.0
 20
0.0
 40
0.35
  0
ENDBLK
  5
15F
 100
AcDbEntity
  8
0
 100
AcDbBlockEnd
  0
BLOCK
  5
160
 100
AcDbEntity
  8
0
 100
AcDbBlockBegin
  2
US17
 70
0
 10
0.0
 20
0.0
  3
US17
  1

  0
LINE
  5
161
 100
AcDbEntity
  8
0
  6
Continuous
 62
0
 370
13
 100
AcDbLine
 10
-0.75
 20
-0.35
 11
0.75
 21
-0.35
  0
LINE
  5
162
 100
AcDbEntity
  8
0
  6
Continuous
 62
0
 370
13
 100
AcDbLine
 10
-0.75
 20
-0.35
 11
-0.75
 21
0.35
  0
LINE
  5
163
 100
AcDbEntity
  8
0
  6
Continuous
 62
0
 370
13
 100
AcDbLine
 10
0.75
 20
-0.35
 11
0.75
 21
0.35
  0
LINE
  5
164
 100
AcDbEntity
  8
0
  6
Continuous
 62
0
 370
13
 100
AcDbLine
 10
-0.75
 20
0.35
 11
0.75
 21
0.35
  0
ENDBLK
  5
165
 100
AcDbEntity
  8
0
 100
AcDbBlockEnd
  0
BLOCK
  5
166
 100
AcDbEntity
  8
0
 100
AcDbBlockBegin
  2
US22
 70
0
 10
0.0
 20
0.0
  3
US22
  1

  0
CIRCLE
  5
167
 100
AcDbEntity
  8
0
  6
Continuous
 62
0
 370
0
 100
AcDbCircle
 10
-0.0
 20
0.0
 40
0.4
  0
ENDBLK
  5
168
 100
AcDbEntity
  8
0
 100
AcDbBlockEnd
  0
BLOCK
  5
169
 100
AcDbEntity
  8
0
 100
AcDbBlockBegin
  2
US25
 70
0
 10
0.0
 20
0.0
  3
US25
  1

  0
HATCH
  5
16A
 62
0
330
0
100
AcDbEntity
6
Continuous
370
    13
100
AcDbHatch
10
0
20
0
30
0
210
0.0
220
0.0
230
1.0
2
SOLID
70
     1
71
     0
91
        1
92
        1
93
        1
72
     2
10
0
20
0
40
0.4
50
0.0
51
360.0
73
     1
97
        0
75
     0
76
     1
98
        0
  0
ENDBLK
  5
16B
 100
AcDbEntity
  8
0
 100
AcDbBlockEnd
  0
BLOCK
  5
16C
 100
AcDbEntity
  8
0
 100
AcDbBlockBegin
  2
W_POL
 70
0
 10
0.0
 20
0.0
  3
W_POL
  1

  0
LINE
  5
16D
 100
AcDbEntity
  8
0
  6
Continuous
 62
0
 370
0
 100
AcDbLine
 10
0.0
 20
13.393
 11
0.0
 21
-3.92
  0
LINE
  5
16E
 100
AcDbEntity
  8
0
  6
Continuous
 62
0
 370
0
 100
AcDbLine
 10
0.0
 20
-3.92
 11
0.0
 21
-4.59
  0
LINE
  5
16F
 100
AcDbEntity
  8
0
  6
Continuous
 62
0
 370
0
 100
AcDbLine
 10
0.0
 20
-4.59
 11
0.0
 21
-10.676
  0
LINE
  5
170
 100
AcDbEntity
  8
0
  6
Continuous
 62
0
 370
0
 100
AcDbLine
 10
0.0
 20
13.393
 11
-0.67
 21
1.818
  0
LINE
  5
171
 100
AcDbEntity
  8
0
  6
Continuous
 62
0
 370
0
 100
AcDbLine
 10
-0.67
 20
1.818
 11
0.0
 21
3.636
  0
LINE
  5
172
 100
AcDbEntity
  8
0
  6
Continuous
 62
0
 370
0
 100
AcDbLine
 10
-0.67
 20
-2.007
 11
-0.67
 21
-5.929
  0
LINE
  5
173
 100
AcDbEntity
  8
0
  6
Continuous
 62
0
 370
0
 100
AcDbLine
 10
0.0
 20
13.393
 11
0.668
 21
1.818
  0
LINE
  5
174
 100
AcDbEntity
  8
0
  6
Continuous
 62
0
 370
0
 100
AcDbLine
 10
0.668
 20
1.818
 11
0.0
 21
3.636
  0
LINE
  5
175
 100
AcDbEntity
  8
0
  6
Continuous
 62
0
 370
0
 100
AcDbLine
 10
0.669
 20
-2.007
 11
0.669
 21
-5.929
  0
LINE
  5
176
 100
AcDbEntity
  8
0
  6
Continuous
 62
0
 370
0
 100
AcDbLine
 10
-0.67
 20
-2.007
 11
0.669
 21
-5.621
  0
LINE
  5
177
 100
AcDbEntity
  8
0
  6
Continuous
 62
0
 370
0
 100
AcDbLine
 10
-0.67
 20
-2.314
 11
0.67
 21
-5.929
  0
SOLID
  5
178
 100
AcDbEntity
  8
0
  6
Continuous
 62
0
 370
0
 100
AcDbTrace
 10
0.0
 20
13.393
 11
0.0
 21
3.636
 12
0.67
 22
1.818
 13
0.67
 23
1.818
 210
0.0
 220
0.0
 230
-1.0
  0
SOLID
  5
179
 100
AcDbEntity
  8
0
  6
Continuous
 62
0
 370
0
 100
AcDbTrace
 10
0.0
 20
-3.814
 11
0.0
 21
-4.122
 12
0.67
 22
-2.007
 13
0.67
 23
-2.314
 210
0.0
 220
0.0
 230
-1.0
  0
LINE
  5
17A
 100
AcDbEntity
  8
0
  6
Continuous
 62
0
 370
0
 100
AcDbLine
 10
-0.755
 20
-6.94
 11
-0.755
 21
-13.393
  0
LINE
  5
17B
 100
AcDbEntity
  8
0
  6
Continuous
 62
0
 370
0
 100
AcDbLine
 10
0.671
 20
-6.94
 11
0.671
 21
-13.393
  0
ENDBLK
  5
17C
 100
AcDbEntity
  8
0
 100
AcDbBlockEnd
  0
ENDSEC
  0
SECTION
  2
ENTITIES
  0
INSERT
  5
17D
 100
AcDbEntity
  8
203-Punkt załamania granicy działki nie stabilizowany
  6
CONTINUOUS
 62
2
 370
13
 100
AcDbBlockReference
 66
0
  2
203
 10
6537959.74
 20
5571064.07
 50
0.0
 41
1.0
 42
1.0
  0
INSERT
  5
17E
 100
AcDbEntity
  8
203-Punkt załamania granicy działki nie stabilizowany
  6
CONTINUOUS
 62
7
 370
18
 100
AcDbBlockReference
 66
0
  2
203
 10
6537963.57
 20
5571076.99
 50
0.0
 41
1.0
 42
1.0
  0
INSERT
  5
17F
 100
AcDbEntity
  8
203-Punkt załamania granicy działki nie stabilizowany
  6
CONTINUOUS
 62
7
 370
18
 100
AcDbBlockReference
 66
0
  2
203
 10
6537946.26
 20
5571045.63
 50
0.0
 41
1.0
 42
1.0
  0
INSERT
  5
180
 100
AcDbEntity
  8
203-Punkt załamania granicy działki nie stabilizowany
  6
CONTINUOUS
 62
7
 370
18
 100
AcDbBlockReference
 66
0
  2
203
 10
6537975.96
 20
5571077.89
 50
0.0
 41
1.0
 42
1.0
  0
INSERT
  5
181
 100
AcDbEntity
  8
203-Punkt załamania granicy działki nie stabilizowany
  6
CONTINUOUS
 62
7
 370
18
 100
AcDbBlockReference
 66
0
  2
203
 10
6537986.62
 20
5571081.08
 50
0.0
 41
1.0
 42
1.0
  0
INSERT
  5
182
 100
AcDbEntity
  8
203-Punkt załamania granicy działki nie stabilizowany
  6
CONTINUOUS
 62
7
 370
18
 100
AcDbBlockReference
 66
0
  2
203
 10
6537954.05
 20
5571017.75
 50
0.0
 41
1.0
 42
1.0
  0
POLYLINE
  5
183
 100
AcDbEntity
  8
312-Budynek (powierzchnia)
  6
CONTINUOUS
 62
7
 370
50
 100
AcDb2dPolyline
 66
1
 10
0
 20
0
 70
128
  0
VERTEX
  5
184
 100
AcDbEntity
  8
0
 100
AcDbVertex
 100
AcDb2dVertex
 10
6537956.84
 20
5571024.59
 42
0.0
 70
0
  0
VERTEX
  5
185
 100
AcDbEntity
  8
0
 100
AcDbVertex
 100
AcDb2dVertex
 10
6537957.1
 20
5571027.72
 42
0.0
 70
0
  0
SEQEND
  5
186
 100
AcDbEntity
  8
0
  0
POLYLINE
  5
187
 100
AcDbEntity
  8
312-Budynek (powierzchnia)
  6
CONTINUOUS
 62
7
 370
50
 100
AcDb2dPolyline
 66
1
 10
0
 20
0
 70
128
  0
VERTEX
  5
188
 100
AcDbEntity
  8
0
 100
AcDbVertex
 100
AcDb2dVertex
 10
6537957.1
 20
5571027.72
 42
0.0
 70
0
  0
VERTEX
  5
189
 100
AcDbEntity
  8
0
 100
AcDbVertex
 100
AcDb2dVertex
 10
6537967.64
 20
5571027.23
 42
0.0
 70
0
  0
SEQEND
  5
18A
 100
AcDbEntity
  8
0
  0
POLYLINE
  5
18B
 100
AcDbEntity
  8
312-Budynek (powierzchnia)
  6
CONTINUOUS
 62
7
 370
50
 100
AcDb2dPolyline
 66
1
 10
0
 20
0
 70
128
  0
VERTEX
  5
18C
 100
AcDbEntity
  8
0
 100
AcDbVertex
 100
AcDb2dVertex
 10
6537967.64
 20
5571027.23
 42
0.0
 70
0
  0
VERTEX
  5
18D
 100
AcDbEntity
  8
0
 100
AcDbVertex
 100
AcDb2dVertex
 10
6537973.14
 20
5571027.01
 42
0.0
 70
0
  0
SEQEND
  5
18E
 100
AcDbEntity
  8
0
  0
POLYLINE
  5
18F
 100
AcDbEntity
  8
312-Budynek (powierzchnia)
  6
CONTINUOUS
 62
7
 370
50
 100
AcDb2dPolyline
 66
1
 10
0
 20
0
 70
128
  0
VERTEX
  5
190
 100
AcDbEntity
  8
0
 100
AcDbVertex
 100
AcDb2dVertex
 10
6537973.14
 20
5571027.01
 42
0.0
 70
0
  0
VERTEX
  5
191
 100
AcDbEntity
  8
0
 100
AcDbVertex
 100
AcDb2dVertex
 10
6537972.94
 20
5571022.2
 42
0.0
 70
0
  0
SEQEND
  5
192
 100
AcDbEntity
  8
0
  0
POLYLINE
  5
193
 100
AcDbEntity
  8
312-Budynek (powierzchnia)
  6
CONTINUOUS
 62
7
 370
50
 100
AcDb2dPolyline
 66
1
 10
0
 20
0
 70
128
  0
VERTEX
  5
194
 100
AcDbEntity
  8
0
 100
AcDbVertex
 100
AcDb2dVertex
 10
6537972.94
 20
5571022.2
 42
0.0
 70
0
  0
VERTEX
  5
195
 100
AcDbEntity
  8
0
 100
AcDbVertex
 100
AcDb2dVertex
 10
6537967.58
 20
5571022.41
 42
0.0
 70
0
  0
SEQEND
  5
196
 100
AcDbEntity
  8
0
  0
POLYLINE
  5
197
 100
AcDbEntity
  8
312-Budynek (powierzchnia)
  6
CONTINUOUS
 62
7
 370
50
 100
AcDb2dPolyline
 66
1
 10
0
 20
0
 70
128
  0
VERTEX
  5
198
 100
AcDbEntity
  8
0
 100
AcDbVertex
 100
AcDb2dVertex
 10
6537967.58
 20
5571022.41
 42
0.0
 70
0
  0
VERTEX
  5
199
 100
AcDbEntity
  8
0
 100
AcDbVertex
 100
AcDb2dVertex
 10
6537967.43
 20
5571019.35
 42
0.0
 70
0
  0
SEQEND
  5
19A
 100
AcDbEntity
  8
0
  0
POLYLINE
  5
19B
 100
AcDbEntity
  8
312-Budynek (powierzchnia)
  6
CONTINUOUS
 62
7
 370
50
 100
AcDb2dPolyline
 66
1
 10
0
 20
0
 70
128
  0
VERTEX
  5
19C
 100
AcDbEntity
  8
0
 100
AcDbVertex
 100
AcDb2dVertex
 10
6537967.43
 20
5571019.35
 42
0.0
 70
0
  0
VERTEX
  5
19D
 100
AcDbEntity
  8
0
 100
AcDbVertex
 100
AcDb2dVertex
 10
6537958.61
 20
5571019.94
 42
0.0
 70
0
  0
SEQEND
  5
19E
 100
AcDbEntity
  8
0
  0
POLYLINE
  5
19F
 100
AcDbEntity
  8
312-Budynek (powierzchnia)
  6
CONTINUOUS
 62
7
 370
50
 100
AcDb2dPolyline
 66
1
 10
0
 20
0
 70
128
  0
VERTEX
  5
1A0
 100
AcDbEntity
  8
0
 100
AcDbVertex
 100
AcDb2dVertex
 10
6537958.61
 20
5571019.94
 42
0.0
 70
0
  0
VERTEX
  5
1A1
 100
AcDbEntity
  8
0
 100
AcDbVertex
 100
AcDb2dVertex
 10
6537959.0
 20
5571024.41
 42
0.0
 70
0
  0
SEQEND
  5
1A2
 100
AcDbEntity
  8
0
  0
POLYLINE
  5
1A3
 100
AcDbEntity
  8
312-Budynek (powierzchnia)
  6
CONTINUOUS
 62
7
 370
50
 100
AcDb2dPolyline
 66
1
 10
0
 20
0
 70
128
  0
VERTEX
  5
1A4
 100
AcDbEntity
  8
0
 100
AcDbVertex
 100
AcDb2dVertex
 10
6537959.0
 20
5571024.41
 42
0.0
 70
0
  0
VERTEX
  5
1A5
 100
AcDbEntity
  8
0
 100
AcDbVertex
 100
AcDb2dVertex
 10
6537956.84
 20
5571024.59
 42
0.0
 70
0
  0
SEQEND
  5
1A6
 100
AcDbEntity
  8
0
  0
TEXT
  5
1A7
 100
AcDbEntity
  8
312-Numer ewidencyjny budynku-Atr124
 62
7
 100
AcDbText
 10
6537963.43
 20
5571023.5
 40
1.8
  1
mj
 50
0.0
 41
0.9
 51
15.0
 72
0
 100
AcDbText
 73
0
  0
POLYLINE
  5
1A8
 100
AcDbEntity
  8
312-Budynek (powierzchnia)
  6
CONTINUOUS
 62
7
 370
50
 100
AcDb2dPolyline
 66
1
 10
0
 20
0
 70
128
  0
VERTEX
  5
1A9
 100
AcDbEntity
  8
0
 100
AcDbVertex
 100
AcDb2dVertex
 10
6537945.23
 20
5571035.55
 42
0.0
 70
0
  0
VERTEX
  5
1AA
 100
AcDbEntity
  8
0
 100
AcDbVertex
 100
AcDb2dVertex
 10
6537948.56
 20
5571037.44
 42
0.0
 70
0
  0
SEQEND
  5
1AB
 100
AcDbEntity
  8
0
  0
POLYLINE
  5
1AC
 100
AcDbEntity
  8
312-Budynek (powierzchnia)
  6
CONTINUOUS
 62
7
 370
50
 100
AcDb2dPolyline
 66
1
 10
0
 20
0
 70
128
  0
VERTEX
  5
1AD
 100
AcDbEntity
  8
0
 100
AcDbVertex
 100
AcDb2dVertex
 10
6537948.56
 20
5571037.44
 42
0.0
 70
0
  0
VERTEX
  5
1AE
 100
AcDbEntity
  8
0
 100
AcDbVertex
 100
AcDb2dVertex
 10
6537954.27
 20
5571027.26
 42
0.0
 70
0
  0
SEQEND
  5
1AF
 100
AcDbEntity
  8
0
  0
POLYLINE
  5
1B0
 100
AcDbEntity
  8
312-Budynek (powierzchnia)
  6
CONTINUOUS
 62
7
 370
50
 100
AcDb2dPolyline
 66
1
 10
0
 20
0
 70
128
  0
VERTEX
  5
1B1
 100
AcDbEntity
  8
0
 100
AcDbVertex
 100
AcDb2dVertex
 10
6537954.27
 20
5571027.26
 42
0.0
 70
0
  0
VERTEX
  5
1B2
 100
AcDbEntity
  8
0
 100
AcDbVertex
 100
AcDb2dVertex
 10
6537950.93
 20
5571025.39
 42
0.0
 70
0
  0
SEQEND
  5
1B3
 100
AcDbEntity
  8
0
  0
POLYLINE
  5
1B4
 100
AcDbEntity
  8
312-Budynek (powierzchnia)
  6
CONTINUOUS
 62
7
 370
50
 100
AcDb2dPolyline
 66
1
 10
0
 20
0
 70
128
  0
VERTEX
  5
1B5
 100
AcDbEntity
  8
0
 100
AcDbVertex
 100
AcDb2dVertex
 10
6537950.93
 20
5571025.39
 42
0.0
 70
0
  0
VERTEX
  5
1B6
 100
AcDbEntity
  8
0
 100
AcDbVertex
 100
AcDb2dVertex
 10
6537945.23
 20
5571035.55
 42
0.0
 70
0
  0
SEQEND
  5
1B7
 100
AcDbEntity
  8
0
  0
TEXT
  5
1B8
 100
AcDbEntity
  8
312-Numer ewidencyjny budynku-Atr124
 62
7
 100
AcDbText
 10
6537950.74
 20
5571031.08
 11
6537950.74
 21
5571031.08
 40
1.8
  1
i
 50
0.0
 41
0.9
 51
15.0
 72
1
 100
AcDbText
 73
0
  0
INSERT
  5
1B9
 100
AcDbEntity
  8
203-Punkt załamania granicy działki nie stabilizowany
  6
CONTINUOUS
 62
7
 370
18
 100
AcDbBlockReference
 66
0
  2
203
 10
6537954.39
 20
5571041.63
 50
0.0
 41
1.0
 42
1.0
  0
INSERT
  5
1BA
 100
AcDbEntity
  8
203-Punkt załamania granicy działki nie stabilizowany
  6
CONTINUOUS
 62
7
 370
18
 100
AcDbBlockReference
 66
0
  2
203
 10
6537949.25
 20
5571042.23
 50
0.0
 41
1.0
 42
1.0
  0
INSERT
  5
1BB
 100
AcDbEntity
  8
203-Punkt załamania granicy działki nie stabilizowany
  6
CONTINUOUS
 62
7
 370
18
 100
AcDbBlockReference
 66
0
  2
203
 10
6537940.83
 20
5571038.8
 50
0.0
 41
1.0
 42
1.0
  0
INSERT
  5
1BC
 100
AcDbEntity
  8
203-Punkt załamania granicy działki nie stabilizowany
  6
CONTINUOUS
 62
7
 370
18
 100
AcDbBlockReference
 66
0
  2
203
 10
6537955.57
 20
5571043.84
 50
0.0
 41
1.0
 42
1.0
  0
INSERT
  5
1BD
 100
AcDbEntity
  8
203-Punkt załamania granicy działki nie stabilizowany
  6
CONTINUOUS
 62
7
 370
18
 100
AcDbBlockReference
 66
0
  2
203
 10
6537950.73
 20
5571040.75
 50
0.0
 41
1.0
 42
1.0
  0
INSERT
  5
1BE
 100
AcDbEntity
  8
203-Punkt załamania granicy działki nie stabilizowany
  6
CONTINUOUS
 62
7
 370
18
 100
AcDbBlockReference
 66
0
  2
203
 10
6537967.79
 20
5571032.74
 50
0.0
 41
1.0
 42
1.0
  0
INSERT
  5
1BF
 100
AcDbEntity
  8
203-Punkt załamania granicy działki nie stabilizowany
  6
CONTINUOUS
 62
7
 370
18
 100
AcDbBlockReference
 66
0
  2
203
 10
6537942.69
 20
5571036.78
 50
0.0
 41
1.0
 42
1.0
  0
INSERT
  5
1C0
 100
AcDbEntity
  8
203-Punkt załamania granicy działki nie stabilizowany
  6
CONTINUOUS
 62
7
 370
18
 100
AcDbBlockReference
 66
0
  2
203
 10
6537946.9
 20
5571038.27
 50
0.0
 41
1.0
 42
1.0
  0
INSERT
  5
1C1
 100
AcDbEntity
  8
203-Punkt załamania granicy działki nie stabilizowany
  6
CONTINUOUS
 62
7
 370
18
 100
AcDbBlockReference
 66
0
  2
203
 10
6537966.84
 20
5571030.97
 50
0.0
 41
1.0
 42
1.0
  0
INSERT
  5
1C2
 100
AcDbEntity
  8
203-Punkt załamania granicy działki nie stabilizowany
  6
CONTINUOUS
 62
7
 370
18
 100
AcDbBlockReference
 66
0
  2
203
 10
6537984.51
 20
5570995.56
 50
0.0
 41
1.0
 42
1.0
  0
INSERT
  5
1C3
 100
AcDbEntity
  8
203-Punkt załamania granicy działki nie stabilizowany
  6
CONTINUOUS
 62
7
 370
18
 100
AcDbBlockReference
 66
0
  2
203
 10
6537989.22
 20
5571000.85
 50
0.0
 41
1.0
 42
1.0
  0
INSERT
  5
1C4
 100
AcDbEntity
  8
203-Punkt załamania granicy działki nie stabilizowany
  6
CONTINUOUS
 62
7
 370
18
 100
AcDbBlockReference
 66
0
  2
203
 10
6537994.81
 20
5570994.3
 50
0.0
 41
1.0
 42
1.0
  0
INSERT
  5
1C5
 100
AcDbEntity
  8
203-Punkt załamania granicy działki nie stabilizowany
  6
CONTINUOUS
 62
7
 370
18
 100
AcDbBlockReference
 66
0
  2
203
 10
6537983.45
 20
5571021.28
 50
0.0
 41
1.0
 42
1.0
  0
INSERT
  5
1C6
 100
AcDbEntity
  8
203-Punkt załamania granicy działki nie stabilizowany
  6
CONTINUOUS
 62
7
 370
18
 100
AcDbBlockReference
 66
0
  2
203
 10
6537981.43
 20
5571005.19
 50
0.0
 41
1.0
 42
1.0
  0
INSERT
  5
1C7
 100
AcDbEntity
  8
203-Punkt załamania granicy działki nie stabilizowany
  6
CONTINUOUS
 62
7
 370
18
 100
AcDbBlockReference
 66
0
  2
203
 10
6537987.28
 20
5571008.63
 50
0.0
 41
1.0
 42
1.0
  0
INSERT
  5
1C8
 100
AcDbEntity
  8
203-Punkt załamania granicy działki nie stabilizowany
  6
CONTINUOUS
 62
7
 370
18
 100
AcDbBlockReference
 66
0
  2
203
 10
6537981.33
 20
5571010.87
 50
0.0
 41
1.0
 42
1.0
  0
INSERT
  5
1C9
 100
AcDbEntity
  8
203-Punkt załamania granicy działki nie stabilizowany
  6
CONTINUOUS
 62
7
 370
18
 100
AcDbBlockReference
 66
0
  2
203
 10
6537987.54
 20
5571013.47
 50
0.0
 41
1.0
 42
1.0
  0
INSERT
  5
1CA
 100
AcDbEntity
  8
203-Punkt załamania granicy działki nie stabilizowany
  6
CONTINUOUS
 62
7
 370
18
 100
AcDbBlockReference
 66
0
  2
203
 10
6537982.01
 20
5571014.89
 50
0.0
 41
1.0
 42
1.0
  0
INSERT
  5
1CB
 100
AcDbEntity
  8
203-Punkt załamania granicy działki nie stabilizowany
  6
CONTINUOUS
 62
7
 370
18
 100
AcDbBlockReference
 66
0
  2
203
 10
6537986.44
 20
5571026.88
 50
0.0
 41
1.0
 42
1.0
  0
INSERT
  5
1CC
 100
AcDbEntity
  8
203-Punkt załamania granicy działki nie stabilizowany
  6
CONTINUOUS
 62
7
 370
18
 100
AcDbBlockReference
 66
0
  2
203
 10
6537985.49
 20
5571025.1
 50
0.0
 41
1.0
 42
1.0
  0
INSERT
  5
1CD
 100
AcDbEntity
  8
203-Punkt załamania granicy działki nie stabilizowany
  6
CONTINUOUS
 62
7
 370
18
 100
AcDbBlockReference
 66
0
  2
203
 10
6537990.43
 20
5571024.98
 50
0.0
 41
1.0
 42
1.0
  0
INSERT
  5
1CE
 100
AcDbEntity
  8
203-Punkt załamania granicy działki nie stabilizowany
  6
CONTINUOUS
 62
7
 370
18
 100
AcDbBlockReference
 66
0
  2
203
 10
6537998.63
 20
5571051.18
 50
0.0
 41
1.0
 42
1.0
  0
POLYLINE
  5
1CF
 100
AcDbEntity
  8
219-Linia granicy
  6
219-1000
 62
7
 370
13
 100
AcDb2dPolyline
 66
1
 10
0
 20
0
 70
128
  0
VERTEX
  5
1D0
 100
AcDbEntity
  8
0
 100
AcDbVertex
 100
AcDb2dVertex
 10
6537939.76
 20
5571069.68
 42
0.0
 70
0
  0
VERTEX
  5
1D1
 100
AcDbEntity
  8
0
 100
AcDbVertex
 100
AcDb2dVertex
 10
6537927.42
 20
5571039.58
 42
0.0
 70
0
  0
SEQEND
  5
1D2
 100
AcDbEntity
  8
0
  0
POLYLINE
  5
1D3
 100
AcDbEntity
  8
219-Linia granicy
  6
219-1000
 62
7
 370
13
 100
AcDb2dPolyline
 66
1
 10
0
 20
0
 70
128
  0
VERTEX
  5
1D4
 100
AcDbEntity
  8
0
 100
AcDbVertex
 100
AcDb2dVertex
 10
6537924.07
 20
5571006.78
 42
0.0
 70
0
  0
VERTEX
  5
1D5
 100
AcDbEntity
  8
0
 100
AcDbVertex
 100
AcDb2dVertex
 10
6537925.4
 20
5571006.2
 42
0.0
 70
0
  0
SEQEND
  5
1D6
 100
AcDbEntity
  8
0
  0
POLYLINE
  5
1D7
 100
AcDbEntity
  8
219-Linia granicy
  6
219-1000
 62
7
 370
13
 100
AcDb2dPolyline
 66
1
 10
0
 20
0
 70
128
  0
VERTEX
  5
1D8
 100
AcDbEntity
  8
0
 100
AcDbVertex
 100
AcDb2dVertex
 10
6537931.42
 20
5571020.87
 42
0.0
 70
0
  0
VERTEX
  5
1D9
 100
AcDbEntity
  8
0
 100
AcDbVertex
 100
AcDb2dVertex
 10
6537928.93
 20
5571021.86
 42
0.0
 70
0
  0
SEQEND
  5
1DA
 100
AcDbEntity
  8
0
  0
POLYLINE
  5
1DB
 100
AcDbEntity
  8
219-Linia granicy
  6
219-1000
 62
7
 370
13
 100
AcDb2dPolyline
 66
1
 10
0
 20
0
 70
128
  0
VERTEX
  5
1DC
 100
AcDbEntity
  8
0
 100
AcDbVertex
 100
AcDb2dVertex
 10
6537929.02
 20
5571037.23
 42
0.0
 70
0
  0
VERTEX
  5
1DD
 100
AcDbEntity
  8
0
 100
AcDbVertex
 100
AcDb2dVertex
 10
6537928.92
 20
5571035.55
 42
0.0
 70
0
  0
SEQEND
  5
1DE
 100
AcDbEntity
  8
0
  0
POLYLINE
  5
1DF
 100
AcDbEntity
  8
219-Linia granicy
  6
219-1000
 62
7
 370
13
 100
AcDb2dPolyline
 66
1
 10
0
 20
0
 70
128
  0
VERTEX
  5
1E0
 100
AcDbEntity
  8
0
 100
AcDbVertex
 100
AcDb2dVertex
 10
6537929.89
 20
5571038.66
 42
0.0
 70
0
  0
VERTEX
  5
1E1
 100
AcDbEntity
  8
0
 100
AcDbVertex
 100
AcDb2dVertex
 10
6537929.02
 20
5571037.23
 42
0.0
 70
0
  0
SEQEND
  5
1E2
 100
AcDbEntity
  8
0
  0
POLYLINE
  5
1E3
 100
AcDbEntity
  8
219-Linia granicy
  6
219-1000
 62
7
 370
13
 100
AcDb2dPolyline
 66
1
 10
0
 20
0
 70
128
  0
VERTEX
  5
1E4
 100
AcDbEntity
  8
0
 100
AcDbVertex
 100
AcDb2dVertex
 10
6537928.27
 20
5571024.64
 42
0.0
 70
0
  0
VERTEX
  5
1E5
 100
AcDbEntity
  8
0
 100
AcDbVertex
 100
AcDb2dVertex
 10
6537924.07
 20
5571020.079
 42
0.0
 70
0
  0
SEQEND
  5
1E6
 100
AcDbEntity
  8
0
  0
POLYLINE
  5
1E7
 100
AcDbEntity
  8
219-Linia granicy
  6
219-1000
 62
7
 370
13
 100
AcDb2dPolyline
 66
1
 10
0
 20
0
 70
128
  0
VERTEX
  5
1E8
 100
AcDbEntity
  8
0
 100
AcDbVertex
 100
AcDb2dVertex
 10
6537946.61
 20
5571015.5
 42
0.0
 70
0
  0
VERTEX
  5
1E9
 100
AcDbEntity
  8
0
 100
AcDbVertex
 100
AcDb2dVertex
 10
6537930.37
 20
5571039.44
 42
0.0
 70
0
  0
SEQEND
  5
1EA
 100
AcDbEntity
  8
0
  0
POLYLINE
  5
1EB
 100
AcDbEntity
  8
219-Linia granicy
  6
219-1000
 62
7
 370
13
 100
AcDb2dPolyline
 66
1
 10
0
 20
0
 70
128
  0
VERTEX
  5
1EC
 100
AcDbEntity
  8
0
 100
AcDbVertex
 100
AcDb2dVertex
 10
6537946.26
 20
5571045.63
 42
0.0
 70
0
  0
VERTEX
  5
1ED
 100
AcDbEntity
  8
0
 100
AcDbVertex
 100
AcDb2dVertex
 10
6537940.83
 20
5571038.8
 42
0.0
 70
0
  0
SEQEND
  5
1EE
 100
AcDbEntity
  8
0
  0
POLYLINE
  5
1EF
 100
AcDbEntity
  8
219-Linia granicy
  6
219-1000
 62
7
 370
13
 100
AcDb2dPolyline
 66
1
 10
0
 20
0
 70
128
  0
VERTEX
  5
1F0
 100
AcDbEntity
  8
0
 100
AcDbVertex
 100
AcDb2dVertex
 10
6537959.113
 20
5571084.31
 42
0.0
 70
0
  0
VERTEX
  5
1F1
 100
AcDbEntity
  8
0
 100
AcDbVertex
 100
AcDb2dVertex
 10
6537955.27
 20
5571076.39
 42
0.0
 70
0
  0
SEQEND
  5
1F2
 100
AcDbEntity
  8
0
  0
POLYLINE
  5
1F3
 100
AcDbEntity
  8
219-Linia granicy
  6
219-1000
 62
7
 370
13
 100
AcDb2dPolyline
 66
1
 10
0
 20
0
 70
128
  0
VERTEX
  5
1F4
 100
AcDbEntity
  8
0
 100
AcDbVertex
 100
AcDb2dVertex
 10
6537954.39
 20
5571041.63
 42
0.0
 70
0
  0
VERTEX
  5
1F5
 100
AcDbEntity
  8
0
 100
AcDbVertex
 100
AcDb2dVertex
 10
6537950.73
 20
5571040.75
 42
0.0
 70
0
  0
SEQEND
  5
1F6
 100
AcDbEntity
  8
0
  0
POLYLINE
  5
1F7
 100
AcDbEntity
  8
219-Linia granicy
  6
219-1000
 62
7
 370
13
 100
AcDb2dPolyline
 66
1
 10
0
 20
0
 70
128
  0
VERTEX
  5
1F8
 100
AcDbEntity
  8
0
 100
AcDbVertex
 100
AcDb2dVertex
 10
6537985.49
 20
5571025.1
 42
0.0
 70
0
  0
VERTEX
  5
1F9
 100
AcDbEntity
  8
0
 100
AcDbVertex
 100
AcDb2dVertex
 10
6537966.84
 20
5571030.97
 42
0.0
 70
0
  0
SEQEND
  5
1FA
 100
AcDbEntity
  8
0
  0
POLYLINE
  5
1FB
 100
AcDbEntity
  8
219-Linia granicy
  6
219-1000
 62
7
 370
13
 100
AcDb2dPolyline
 66
1
 10
0
 20
0
 70
128
  0
VERTEX
  5
1FC
 100
AcDbEntity
  8
0
 100
AcDbVertex
 100
AcDb2dVertex
 10
6537982.01
 20
5571014.89
 42
0.0
 70
0
  0
VERTEX
  5
1FD
 100
AcDbEntity
  8
0
 100
AcDbVertex
 100
AcDb2dVertex
 10
6537981.33
 20
5571010.87
 42
0.0
 70
0
  0
SEQEND
  5
1FE
 100
AcDbEntity
  8
0
  0
POLYLINE
  5
1FF
 100
AcDbEntity
  8
219-Linia granicy
  6
219-1000
 62
7
 370
13
 100
AcDb2dPolyline
 66
1
 10
0
 20
0
 70
128
  0
VERTEX
  5
200
 100
AcDbEntity
  8
0
 100
AcDbVertex
 100
AcDb2dVertex
 10
6537981.43
 20
5571005.19
 42
0.0
 70
0
  0
VERTEX
  5
201
 100
AcDbEntity
  8
0
 100
AcDbVertex
 100
AcDb2dVertex
 10
6537981.33
 20
5571010.87
 42
0.0
 70
0
  0
SEQEND
  5
202
 100
AcDbEntity
  8
0
  0
POLYLINE
  5
203
 100
AcDbEntity
  8
219-Linia granicy
  6
219-1000
 62
7
 370
13
 100
AcDb2dPolyline
 66
1
 10
0
 20
0
 70
128
  0
VERTEX
  5
204
 100
AcDbEntity
  8
0
 100
AcDbVertex
 100
AcDb2dVertex
 10
6537927.42
 20
5571039.58
 42
0.0
 70
0
  0
VERTEX
  5
205
 100
AcDbEntity
  8
0
 100
AcDbVertex
 100
AcDb2dVertex
 10
6537925.7
 20
5571035.34
 42
0.0
 70
0
  0
SEQEND
  5
206
 100
AcDbEntity
  8
0
  0
POLYLINE
  5
207
 100
AcDbEntity
  8
219-Linia granicy
  6
219-1000
 62
7
 370
13
 100
AcDb2dPolyline
 66
1
 10
0
 20
0
 70
128
  0
VERTEX
  5
208
 100
AcDbEntity
  8
0
 100
AcDbVertex
 100
AcDb2dVertex
 10
6537924.07
 20
5571031.374
 42
0.0
 70
0
  0
VERTEX
  5
209
 100
AcDbEntity
  8
0
 100
AcDbVertex
 100
AcDb2dVertex
 10
6537925.7
 20
5571035.34
 42
0.0
 70
0
  0
SEQEND
  5
20A
 100
AcDbEntity
  8
0
  0
POLYLINE
  5
20B
 100
AcDbEntity
  8
219-Linia granicy
  6
219-1000
 62
7
 370
13
 100
AcDb2dPolyline
 66
1
 10
0
 20
0
 70
128
  0
VERTEX
  5
20C
 100
AcDbEntity
  8
0
 100
AcDbVertex
 100
AcDb2dVertex
 10
6537931.42
 20
5571020.87
 42
0.0
 70
0
  0
VERTEX
  5
20D
 100
AcDbEntity
  8
0
 100
AcDbVertex
 100
AcDb2dVertex
 10
6537930.97
 20
5571019.73
 42
0.0
 70
0
  0
SEQEND
  5
20E
 100
AcDbEntity
  8
0
  0
POLYLINE
  5
20F
 100
AcDbEntity
  8
219-Linia granicy
  6
219-1000
 62
7
 370
13
 100
AcDb2dPolyline
 66
1
 10
0
 20
0
 70
128
  0
VERTEX
  5
210
 100
AcDbEntity
  8
0
 100
AcDbVertex
 100
AcDb2dVertex
 10
6537931.96
 20
5571019.66
 42
0.0
 70
0
  0
VERTEX
  5
211
 100
AcDbEntity
  8
0
 100
AcDbVertex
 100
AcDb2dVertex
 10
6537930.97
 20
5571019.73
 42
0.0
 70
0
  0
SEQEND
  5
212
 100
AcDbEntity
  8
0
  0
POLYLINE
  5
213
 100
AcDbEntity
  8
219-Linia granicy
  6
219-1000
 62
7
 370
13
 100
AcDb2dPolyline
 66
1
 10
0
 20
0
 70
128
  0
VERTEX
  5
214
 100
AcDbEntity
  8
0
 100
AcDbVertex
 100
AcDb2dVertex
 10
6537983.45
 20
5571021.28
 42
0.0
 70
0
  0
VERTEX
  5
215
 100
AcDbEntity
  8
0
 100
AcDbVertex
 100
AcDb2dVertex
 10
6537982.01
 20
5571014.89
 42
0.0
 70
0
  0
SEQEND
  5
216
 100
AcDbEntity
  8
0
  0
POLYLINE
  5
217
 100
AcDbEntity
  8
219-Linia granicy
  6
219-1000
 62
7
 370
13
 100
AcDb2dPolyline
 66
1
 10
0
 20
0
 70
128
  0
VERTEX
  5
218
 100
AcDbEntity
  8
0
 100
AcDbVertex
 100
AcDb2dVertex
 10
6537928.92
 20
5571035.55
 42
0.0
 70
0
  0
VERTEX
  5
219
 100
AcDbEntity
  8
0
 100
AcDbVertex
 100
AcDb2dVertex
 10
6537925.7
 20
5571035.34
 42
0.0
 70
0
  0
SEQEND
  5
21A
 100
AcDbEntity
  8
0
  0
POLYLINE
  5
21B
 100
AcDbEntity
  8
219-Linia granicy
  6
219-1000
 62
7
 370
13
 100
AcDb2dPolyline
 66
1
 10
0
 20
0
 70
128
  0
VERTEX
  5
21C
 100
AcDbEntity
  8
0
 100
AcDbVertex
 100
AcDb2dVertex
 10
6537930.37
 20
5571039.44
 42
0.0
 70
0
  0
VERTEX
  5
21D
 100
AcDbEntity
  8
0
 100
AcDbVertex
 100
AcDb2dVertex
 10
6537929.89
 20
5571038.66
 42
0.0
 70
0
  0
SEQEND
  5
21E
 100
AcDbEntity
  8
0
  0
POLYLINE
  5
21F
 100
AcDbEntity
  8
219-Linia granicy
  6
219-1000
 62
7
 370
13
 100
AcDb2dPolyline
 66
1
 10
0
 20
0
 70
128
  0
VERTEX
  5
220
 100
AcDbEntity
  8
0
 100
AcDbVertex
 100
AcDb2dVertex
 10
6537951.26
 20
5571065.53
 42
0.0
 70
0
  0
VERTEX
  5
221
 100
AcDbEntity
  8
0
 100
AcDbVertex
 100
AcDb2dVertex
 10
6537939.76
 20
5571069.68
 42
0.0
 70
0
  0
SEQEND
  5
222
 100
AcDbEntity
  8
0
  0
POLYLINE
  5
223
 100
AcDbEntity
  8
219-Linia granicy
  6
219-1000
 62
7
 370
13
 100
AcDb2dPolyline
 66
1
 10
0
 20
0
 70
128
  0
VERTEX
  5
224
 100
AcDbEntity
  8
0
 100
AcDbVertex
 100
AcDb2dVertex
 10
6537963.57
 20
5571076.99
 42
0.0
 70
0
  0
VERTEX
  5
225
 100
AcDbEntity
  8
0
 100
AcDbVertex
 100
AcDb2dVertex
 10
6537955.27
 20
5571076.39
 42
0.0
 70
0
  0
SEQEND
  5
226
 100
AcDbEntity
  8
0
  0
POLYLINE
  5
227
 100
AcDbEntity
  8
219-Linia granicy
  6
219-1000
 62
7
 370
13
 100
AcDb2dPolyline
 66
1
 10
0
 20
0
 70
128
  0
VERTEX
  5
228
 100
AcDbEntity
  8
0
 100
AcDbVertex
 100
AcDb2dVertex
 10
6537946.9
 20
5571038.27
 42
0.0
 70
0
  0
VERTEX
  5
229
 100
AcDbEntity
  8
0
 100
AcDbVertex
 100
AcDb2dVertex
 10
6537940.83
 20
5571038.8
 42
0.0
 70
0
  0
SEQEND
  5
22A
 100
AcDbEntity
  8
0
  0
POLYLINE
  5
22B
 100
AcDbEntity
  8
219-Linia granicy
  6
219-1000
 62
7
 370
13
 100
AcDb2dPolyline
 66
1
 10
0
 20
0
 70
128
  0
VERTEX
  5
22C
 100
AcDbEntity
  8
0
 100
AcDbVertex
 100
AcDb2dVertex
 10
6537955.57
 20
5571043.84
 42
0.0
 70
0
  0
VERTEX
  5
22D
 100
AcDbEntity
  8
0
 100
AcDbVertex
 100
AcDb2dVertex
 10
6537949.25
 20
5571042.23
 42
0.0
 70
0
  0
SEQEND
  5
22E
 100
AcDbEntity
  8
0
  0
POLYLINE
  5
22F
 100
AcDbEntity
  8
219-Linia granicy
  6
219-1000
 62
7
 370
13
 100
AcDb2dPolyline
 66
1
 10
0
 20
0
 70
128
  0
VERTEX
  5
230
 100
AcDbEntity
  8
0
 100
AcDbVertex
 100
AcDb2dVertex
 10
6537998.63
 20
5571051.18
 42
0.0
 70
0
  0
VERTEX
  5
231
 100
AcDbEntity
  8
0
 100
AcDbVertex
 100
AcDb2dVertex
 10
6537986.44
 20
5571026.88
 42
0.0
 70
0
  0
SEQEND
  5
232
 100
AcDbEntity
  8
0
  0
POLYLINE
  5
233
 100
AcDbEntity
  8
219-Linia granicy
  6
219-1000
 62
7
 370
13
 100
AcDb2dPolyline
 66
1
 10
0
 20
0
 70
128
  0
VERTEX
  5
234
 100
AcDbEntity
  8
0
 100
AcDbVertex
 100
AcDb2dVertex
 10
6537984.51
 20
5570995.56
 42
0.0
 70
0
  0
VERTEX
  5
235
 100
AcDbEntity
  8
0
 100
AcDbVertex
 100
AcDb2dVertex
 10
6537981.43
 20
5571005.19
 42
0.0
 70
0
  0
SEQEND
  5
236
 100
AcDbEntity
  8
0
  0
POLYLINE
  5
237
 100
AcDbEntity
  8
219-Linia granicy
  6
219-1000
 62
7
 370
13
 100
AcDb2dPolyline
 66
1
 10
0
 20
0
 70
128
  0
VERTEX
  5
238
 100
AcDbEntity
  8
0
 100
AcDbVertex
 100
AcDb2dVertex
 10
6537945.431
 20
5571084.31
 42
0.0
 70
0
  0
VERTEX
  5
239
 100
AcDbEntity
  8
0
 100
AcDbVertex
 100
AcDb2dVertex
 10
6537940.33
 20
5571071.02
 42
0.0
 70
0
  0
SEQEND
  5
23A
 100
AcDbEntity
  8
0
  0
POLYLINE
  5
23B
 100
AcDbEntity
  8
219-Linia granicy
  6
219-1000
 62
7
 370
13
 100
AcDb2dPolyline
 66
1
 10
0
 20
0
 70
128
  0
VERTEX
  5
23C
 100
AcDbEntity
  8
0
 100
AcDbVertex
 100
AcDb2dVertex
 10
6537940.33
 20
5571071.02
 42
0.0
 70
0
  0
VERTEX
  5
23D
 100
AcDbEntity
  8
0
 100
AcDbVertex
 100
AcDb2dVertex
 10
6537939.76
 20
5571069.68
 42
0.0
 70
0
  0
SEQEND
  5
23E
 100
AcDbEntity
  8
0
  0
POLYLINE
  5
23F
 100
AcDbEntity
  8
219-Linia granicy
  6
219-1000
 62
7
 370
13
 100
AcDb2dPolyline
 66
1
 10
0
 20
0
 70
128
  0
VERTEX
  5
240
 100
AcDbEntity
  8
0
 100
AcDbVertex
 100
AcDb2dVertex
 10
6537924.07
 20
5570998.899
 42
0.0
 70
0
  0
VERTEX
  5
241
 100
AcDbEntity
  8
0
 100
AcDbVertex
 100
AcDb2dVertex
 10
6537946.55
 20
5571011.72
 42
0.0
 70
0
  0
SEQEND
  5
242
 100
AcDbEntity
  8
0
  0
POLYLINE
  5
243
 100
AcDbEntity
  8
219-Linia granicy
  6
219-1000
 62
7
 370
13
 100
AcDb2dPolyline
 66
1
 10
0
 20
0
 70
128
  0
VERTEX
  5
244
 100
AcDbEntity
  8
0
 100
AcDbVertex
 100
AcDb2dVertex
 10
6537983.45
 20
5571021.28
 42
0.0
 70
0
  0
VERTEX
  5
245
 100
AcDbEntity
  8
0
 100
AcDbVertex
 100
AcDb2dVertex
 10
6537977.38
 20
5571019.53
 42
0.0
 70
0
  0
SEQEND
  5
246
 100
AcDbEntity
  8
0
  0
POLYLINE
  5
247
 100
AcDbEntity
  8
219-Linia granicy
  6
219-1000
 62
7
 370
13
 100
AcDb2dPolyline
 66
1
 10
0
 20
0
 70
128
  0
VERTEX
  5
248
 100
AcDbEntity
  8
0
 100
AcDbVertex
 100
AcDb2dVertex
 10
6537982.01
 20
5571014.89
 42
0.0
 70
0
  0
VERTEX
  5
249
 100
AcDbEntity
  8
0
 100
AcDbVertex
 100
AcDb2dVertex
 10
6537964.0
 20
5571015.9
 42
0.0
 70
0
  0
SEQEND
  5
24A
 100
AcDbEntity
  8
0
  0
POLYLINE
  5
24B
 100
AcDbEntity
  8
219-Linia granicy
  6
219-1000
 62
7
 370
13
 100
AcDb2dPolyline
 66
1
 10
0
 20
0
 70
128
  0
VERTEX
  5
24C
 100
AcDbEntity
  8
0
 100
AcDbVertex
 100
AcDb2dVertex
 10
6537930.37
 20
5571039.44
 42
0.0
 70
0
  0
VERTEX
  5
24D
 100
AcDbEntity
  8
0
 100
AcDbVertex
 100
AcDb2dVertex
 10
6537927.42
 20
5571039.58
 42
0.0
 70
0
  0
SEQEND
  5
24E
 100
AcDbEntity
  8
0
  0
POLYLINE
  5
24F
 100
AcDbEntity
  8
219-Linia granicy
  6
219-1000
 62
7
 370
13
 100
AcDb2dPolyline
 66
1
 10
0
 20
0
 70
128
  0
VERTEX
  5
250
 100
AcDbEntity
  8
0
 100
AcDbVertex
 100
AcDb2dVertex
 10
6537951.26
 20
5571065.53
 42
0.0
 70
0
  0
VERTEX
  5
251
 100
AcDbEntity
  8
0
 100
AcDbVertex
 100
AcDb2dVertex
 10
6537930.37
 20
5571039.44
 42
0.0
 70
0
  0
SEQEND
  5
252
 100
AcDbEntity
  8
0
  0
POLYLINE
  5
253
 100
AcDbEntity
  8
219-Linia granicy
  6
219-1000
 62
7
 370
13
 100
AcDb2dPolyline
 66
1
 10
0
 20
0
 70
128
  0
VERTEX
  5
254
 100
AcDbEntity
  8
0
 100
AcDbVertex
 100
AcDb2dVertex
 10
6537942.69
 20
5571036.78
 42
0.0
 70
0
  0
VERTEX
  5
255
 100
AcDbEntity
  8
0
 100
AcDbVertex
 100
AcDb2dVertex
 10
6537940.83
 20
5571038.8
 42
0.0
 70
0
  0
SEQEND
  5
256
 100
AcDbEntity
  8
0
  0
POLYLINE
  5
257
 100
AcDbEntity
  8
219-Linia granicy
  6
219-1000
 62
7
 370
13
 100
AcDb2dPolyline
 66
1
 10
0
 20
0
 70
128
  0
VERTEX
  5
258
 100
AcDbEntity
  8
0
 100
AcDbVertex
 100
AcDb2dVertex
 10
6537949.25
 20
5571042.23
 42
0.0
 70
0
  0
VERTEX
  5
259
 100
AcDbEntity
  8
0
 100
AcDbVertex
 100
AcDb2dVertex
 10
6537946.9
 20
5571038.27
 42
0.0
 70
0
  0
SEQEND
  5
25A
 100
AcDbEntity
  8
0
  0
POLYLINE
  5
25B
 100
AcDbEntity
  8
219-Linia granicy
  6
219-1000
 62
7
 370
13
 100
AcDb2dPolyline
 66
1
 10
0
 20
0
 70
128
  0
VERTEX
  5
25C
 100
AcDbEntity
  8
0
 100
AcDbVertex
 100
AcDb2dVertex
 10
6537992.767
 20
5571084.31
 42
0.0
 70
0
  0
VERTEX
  5
25D
 100
AcDbEntity
  8
0
 100
AcDbVertex
 100
AcDb2dVertex
 10
6537986.62
 20
5571081.08
 42
0.0
 70
0
  0
SEQEND
  5
25E
 100
AcDbEntity
  8
0
  0
POLYLINE
  5
25F
 100
AcDbEntity
  8
219-Linia granicy
  6
219-1000
 62
7
 370
13
 100
AcDb2dPolyline
 66
1
 10
0
 20
0
 70
128
  0
VERTEX
  5
260
 100
AcDbEntity
  8
0
 100
AcDbVertex
 100
AcDb2dVertex
 10
6537945.79
 20
5571015.01
 42
0.0
 70
0
  0
VERTEX
  5
261
 100
AcDbEntity
  8
0
 100
AcDbVertex
 100
AcDb2dVertex
 10
6537929.89
 20
5571038.66
 42
0.0
 70
0
  0
SEQEND
  5
262
 100
AcDbEntity
  8
0
  0
POLYLINE
  5
263
 100
AcDbEntity
  8
219-Linia granicy
  6
219-1000
 62
7
 370
13
 100
AcDb2dPolyline
 66
1
 10
0
 20
0
 70
128
  0
VERTEX
  5
264
 100
AcDbEntity
  8
0
 100
AcDbVertex
 100
AcDb2dVertex
 10
6537928.39
 20
5571025.66
 42
0.0
 70
0
  0
VERTEX
  5
265
 100
AcDbEntity
  8
0
 100
AcDbVertex
 100
AcDb2dVertex
 10
6537928.27
 20
5571024.64
 42
0.0
 70
0
  0
SEQEND
  5
266
 100
AcDbEntity
  8
0
  0
POLYLINE
  5
267
 100
AcDbEntity
  8
219-Linia granicy
  6
219-1000
 62
7
 370
13
 100
AcDb2dPolyline
 66
1
 10
0
 20
0
 70
128
  0
VERTEX
  5
268
 100
AcDbEntity
  8
0
 100
AcDbVertex
 100
AcDb2dVertex
 10
6537954.05
 20
5571017.75
 42
0.0
 70
0
  0
VERTEX
  5
269
 100
AcDbEntity
  8
0
 100
AcDbVertex
 100
AcDb2dVertex
 10
6537944.82
 20
5571033.98
 42
0.0
 70
0
  0
SEQEND
  5
26A
 100
AcDbEntity
  8
0
  0
POLYLINE
  5
26B
 100
AcDbEntity
  8
219-Linia granicy
  6
219-1000
 62
7
 370
13
 100
AcDb2dPolyline
 66
1
 10
0
 20
0
 70
128
  0
VERTEX
  5
26C
 100
AcDbEntity
  8
0
 100
AcDbVertex
 100
AcDb2dVertex
 10
6537959.74
 20
5571064.07
 42
0.0
 70
0
  0
VERTEX
  5
26D
 100
AcDbEntity
  8
0
 100
AcDbVertex
 100
AcDb2dVertex
 10
6537946.26
 20
5571045.63
 42
0.0
 70
0
  0
SEQEND
  5
26E
 100
AcDbEntity
  8
0
  0
POLYLINE
  5
26F
 100
AcDbEntity
  8
219-Linia granicy
  6
219-1000
 62
7
 370
13
 100
AcDb2dPolyline
 66
1
 10
0
 20
0
 70
128
  0
VERTEX
  5
270
 100
AcDbEntity
  8
0
 100
AcDbVertex
 100
AcDb2dVertex
 10
6537986.44
 20
5571026.88
 42
0.0
 70
0
  0
VERTEX
  5
271
 100
AcDbEntity
  8
0
 100
AcDbVertex
 100
AcDb2dVertex
 10
6537967.79
 20
5571032.74
 42
0.0
 70
0
  0
SEQEND
  5
272
 100
AcDbEntity
  8
0
  0
POLYLINE
  5
273
 100
AcDbEntity
  8
219-Linia granicy
  6
219-1000
 62
7
 370
13
 100
AcDb2dPolyline
 66
1
 10
0
 20
0
 70
128
  0
VERTEX
  5
274
 100
AcDbEntity
  8
0
 100
AcDbVertex
 100
AcDb2dVertex
 10
6537985.49
 20
5571025.1
 42
0.0
 70
0
  0
VERTEX
  5
275
 100
AcDbEntity
  8
0
 100
AcDbVertex
 100
AcDb2dVertex
 10
6537983.45
 20
5571021.28
 42
0.0
 70
0
  0
SEQEND
  5
276
 100
AcDbEntity
  8
0
  0
POLYLINE
  5
277
 100
AcDbEntity
  8
219-Linia granicy
  6
219-1000
 62
7
 370
13
 100
AcDb2dPolyline
 66
1
 10
0
 20
0
 70
128
  0
VERTEX
  5
278
 100
AcDbEntity
  8
0
 100
AcDbVertex
 100
AcDb2dVertex
 10
6537986.724
 20
5570993.04
 42
0.0
 70
0
  0
VERTEX
  5
279
 100
AcDbEntity
  8
0
 100
AcDbVertex
 100
AcDb2dVertex
 10
6537984.51
 20
5570995.56
 42
0.0
 70
0
  0
SEQEND
  5
27A
 100
AcDbEntity
  8
0
  0
POLYLINE
  5
27B
 100
AcDbEntity
  8
219-Linia granicy
  6
219-1000
 62
7
 370
13
 100
AcDb2dPolyline
 66
1
 10
0
 20
0
 70
128
  0
VERTEX
  5
27C
 100
AcDbEntity
  8
0
 100
AcDbVertex
 100
AcDb2dVertex
 10
6537981.698
 20
5571084.31
 42
0.0
 70
0
  0
VERTEX
  5
27D
 100
AcDbEntity
  8
0
 100
AcDbVertex
 100
AcDb2dVertex
 10
6537975.96
 20
5571077.89
 42
0.0
 70
0
  0
SEQEND
  5
27E
 100
AcDbEntity
  8
0
  0
POLYLINE
  5
27F
 100
AcDbEntity
  8
219-Linia granicy
  6
219-1000
 62
7
 370
13
 100
AcDb2dPolyline
 66
1
 10
0
 20
0
 70
128
  0
VERTEX
  5
280
 100
AcDbEntity
  8
0
 100
AcDbVertex
 100
AcDb2dVertex
 10
6537990.43
 20
5571024.98
 42
0.0
 70
0
  0
VERTEX
  5
281
 100
AcDbEntity
  8
0
 100
AcDbVertex
 100
AcDb2dVertex
 10
6537987.54
 20
5571013.47
 42
0.0
 70
0
  0
SEQEND
  5
282
 100
AcDbEntity
  8
0
  0
POLYLINE
  5
283
 100
AcDbEntity
  8
219-Linia granicy
  6
219-1000
 62
7
 370
13
 100
AcDb2dPolyline
 66
1
 10
0
 20
0
 70
128
  0
VERTEX
  5
284
 100
AcDbEntity
  8
0
 100
AcDbVertex
 100
AcDb2dVertex
 10
6537954.85
 20
5571016.29
 42
0.0
 70
0
  0
VERTEX
  5
285
 100
AcDbEntity
  8
0
 100
AcDbVertex
 100
AcDb2dVertex
 10
6537946.55
 20
5571011.72
 42
0.0
 70
0
  0
SEQEND
  5
286
 100
AcDbEntity
  8
0
  0
POLYLINE
  5
287
 100
AcDbEntity
  8
219-Linia granicy
  6
219-1000
 62
7
 370
13
 100
AcDb2dPolyline
 66
1
 10
0
 20
0
 70
128
  0
VERTEX
  5
288
 100
AcDbEntity
  8
0
 100
AcDbVertex
 100
AcDb2dVertex
 10
6537928.93
 20
5571021.86
 42
0.0
 70
0
  0
VERTEX
  5
289
 100
AcDbEntity
  8
0
 100
AcDbVertex
 100
AcDb2dVertex
 10
6537926.87
 20
5571018.37
 42
0.0
 70
0
  0
SEQEND
  5
28A
 100
AcDbEntity
  8
0
  0
POLYLINE
  5
28B
 100
AcDbEntity
  8
219-Linia granicy
  6
219-1000
 62
7
 370
13
 100
AcDb2dPolyline
 66
1
 10
0
 20
0
 70
128
  0
VERTEX
  5
28C
 100
AcDbEntity
  8
0
 100
AcDbVertex
 100
AcDb2dVertex
 10
6537933.7
 20
5571023.46
 42
0.0
 70
0
  0
VERTEX
  5
28D
 100
AcDbEntity
  8
0
 100
AcDbVertex
 100
AcDb2dVertex
 10
6537928.39
 20
5571025.66
 42
0.0
 70
0
  0
SEQEND
  5
28E
 100
AcDbEntity
  8
0
  0
POLYLINE
  5
28F
 100
AcDbEntity
  8
219-Linia granicy
  6
219-1000
 62
7
 370
13
 100
AcDb2dPolyline
 66
1
 10
0
 20
0
 70
128
  0
VERTEX
  5
290
 100
AcDbEntity
  8
0
 100
AcDbVertex
 100
AcDb2dVertex
 10
6537924.07
 20
5571002.299
 42
0.0
 70
0
  0
VERTEX
  5
291
 100
AcDbEntity
  8
0
 100
AcDbVertex
 100
AcDb2dVertex
 10
6537945.79
 20
5571015.01
 42
0.0
 70
0
  0
SEQEND
  5
292
 100
AcDbEntity
  8
0
  0
POLYLINE
  5
293
 100
AcDbEntity
  8
219-Linia granicy
  6
219-1000
 62
7
 370
13
 100
AcDb2dPolyline
 66
1
 10
0
 20
0
 70
128
  0
VERTEX
  5
294
 100
AcDbEntity
  8
0
 100
AcDbVertex
 100
AcDb2dVertex
 10
6537940.83
 20
5571038.8
 42
0.0
 70
0
  0
VERTEX
  5
295
 100
AcDbEntity
  8
0
 100
AcDbVertex
 100
AcDb2dVertex
 10
6537930.37
 20
5571039.44
 42
0.0
 70
0
  0
SEQEND
  5
296
 100
AcDbEntity
  8
0
  0
POLYLINE
  5
297
 100
AcDbEntity
  8
219-Linia granicy
  6
219-1000
 62
7
 370
13
 100
AcDb2dPolyline
 66
1
 10
0
 20
0
 70
128
  0
VERTEX
  5
298
 100
AcDbEntity
  8
0
 100
AcDbVertex
 100
AcDb2dVertex
 10
6538017.88
 20
5571084.31
 42
0.0
 70
0
  0
VERTEX
  5
299
 100
AcDbEntity
  8
0
 100
AcDbVertex
 100
AcDb2dVertex
 10
6537998.63
 20
5571051.18
 42
0.0
 70
0
  0
SEQEND
  5
29A
 100
AcDbEntity
  8
0
  0
POLYLINE
  5
29B
 100
AcDbEntity
  8
219-Linia granicy
  6
219-1000
 62
7
 370
13
 100
AcDb2dPolyline
 66
1
 10
0
 20
0
 70
128
  0
VERTEX
  5
29C
 100
AcDbEntity
  8
0
 100
AcDbVertex
 100
AcDb2dVertex
 10
6537987.54
 20
5571013.47
 42
0.0
 70
0
  0
VERTEX
  5
29D
 100
AcDbEntity
  8
0
 100
AcDbVertex
 100
AcDb2dVertex
 10
6537987.28
 20
5571008.63
 42
0.0
 70
0
  0
SEQEND
  5
29E
 100
AcDbEntity
  8
0
  0
POLYLINE
  5
29F
 100
AcDbEntity
  8
219-Linia granicy
  6
219-1000
 62
7
 370
13
 100
AcDb2dPolyline
 66
1
 10
0
 20
0
 70
128
  0
VERTEX
  5
2A0
 100
AcDbEntity
  8
0
 100
AcDbVertex
 100
AcDb2dVertex
 10
6537930.75
 20
5571016.7
 42
0.0
 70
0
  0
VERTEX
  5
2A1
 100
AcDbEntity
  8
0
 100
AcDbVertex
 100
AcDb2dVertex
 10
6537926.87
 20
5571018.37
 42
0.0
 70
0
  0
SEQEND
  5
2A2
 100
AcDbEntity
  8
0
  0
POLYLINE
  5
2A3
 100
AcDbEntity
  8
219-Linia granicy
  6
219-1000
 62
7
 370
13
 100
AcDb2dPolyline
 66
1
 10
0
 20
0
 70
128
  0
VERTEX
  5
2A4
 100
AcDbEntity
  8
0
 100
AcDbVertex
 100
AcDb2dVertex
 10
6537933.7
 20
5571023.46
 42
0.0
 70
0
  0
VERTEX
  5
2A5
 100
AcDbEntity
  8
0
 100
AcDbVertex
 100
AcDb2dVertex
 10
6537931.96
 20
5571019.66
 42
0.0
 70
0
  0
SEQEND
  5
2A6
 100
AcDbEntity
  8
0
  0
POLYLINE
  5
2A7
 100
AcDbEntity
  8
219-Linia granicy
  6
219-1000
 62
7
 370
13
 100
AcDb2dPolyline
 66
1
 10
0
 20
0
 70
128
  0
VERTEX
  5
2A8
 100
AcDbEntity
  8
0
 100
AcDbVertex
 100
AcDb2dVertex
 10
6537928.92
 20
5571035.55
 42
0.0
 70
0
  0
VERTEX
  5
2A9
 100
AcDbEntity
  8
0
 100
AcDbVertex
 100
AcDb2dVertex
 10
6537928.39
 20
5571025.66
 42
0.0
 70
0
  0
SEQEND
  5
2AA
 100
AcDbEntity
  8
0
  0
POLYLINE
  5
2AB
 100
AcDbEntity
  8
219-Linia granicy
  6
219-1000
 62
7
 370
13
 100
AcDb2dPolyline
 66
1
 10
0
 20
0
 70
128
  0
VERTEX
  5
2AC
 100
AcDbEntity
  8
0
 100
AcDbVertex
 100
AcDb2dVertex
 10
6537955.27
 20
5571076.39
 42
0.0
 70
0
  0
VERTEX
  5
2AD
 100
AcDbEntity
  8
0
 100
AcDbVertex
 100
AcDb2dVertex
 10
6537951.26
 20
5571065.53
 42
0.0
 70
0
  0
SEQEND
  5
2AE
 100
AcDbEntity
  8
0
  0
POLYLINE
  5
2AF
 100
AcDbEntity
  8
219-Linia granicy
  6
219-1000
 62
7
 370
13
 100
AcDb2dPolyline
 66
1
 10
0
 20
0
 70
128
  0
VERTEX
  5
2B0
 100
AcDbEntity
  8
0
 100
AcDbVertex
 100
AcDb2dVertex
 10
6537963.57
 20
5571076.99
 42
0.0
 70
0
  0
VERTEX
  5
2B1
 100
AcDbEntity
  8
0
 100
AcDbVertex
 100
AcDb2dVertex
 10
6537959.74
 20
5571064.07
 42
0.0
 70
0
  0
SEQEND
  5
2B2
 100
AcDbEntity
  8
0
  0
POLYLINE
  5
2B3
 100
AcDbEntity
  8
219-Linia granicy
  6
219-1000
 62
7
 370
13
 100
AcDb2dPolyline
 66
1
 10
0
 20
0
 70
128
  0
VERTEX
  5
2B4
 100
AcDbEntity
  8
0
 100
AcDbVertex
 100
AcDb2dVertex
 10
6537967.79
 20
5571032.74
 42
0.0
 70
0
  0
VERTEX
  5
2B5
 100
AcDbEntity
  8
0
 100
AcDbVertex
 100
AcDb2dVertex
 10
6537955.57
 20
5571043.84
 42
0.0
 70
0
  0
SEQEND
  5
2B6
 100
AcDbEntity
  8
0
  0
POLYLINE
  5
2B7
 100
AcDbEntity
  8
219-Linia granicy
  6
219-1000
 62
7
 370
13
 100
AcDb2dPolyline
 66
1
 10
0
 20
0
 70
128
  0
VERTEX
  5
2B8
 100
AcDbEntity
  8
0
 100
AcDbVertex
 100
AcDb2dVertex
 10
6537986.44
 20
5571026.88
 42
0.0
 70
0
  0
VERTEX
  5
2B9
 100
AcDbEntity
  8
0
 100
AcDbVertex
 100
AcDb2dVertex
 10
6537985.49
 20
5571025.1
 42
0.0
 70
0
  0
SEQEND
  5
2BA
 100
AcDbEntity
  8
0
  0
POLYLINE
  5
2BB
 100
AcDbEntity
  8
219-Linia granicy
  6
219-1000
 62
7
 370
13
 100
AcDb2dPolyline
 66
1
 10
0
 20
0
 70
128
  0
VERTEX
  5
2BC
 100
AcDbEntity
  8
0
 100
AcDbVertex
 100
AcDb2dVertex
 10
6537996.919
 20
5570993.04
 42
0.0
 70
0
  0
VERTEX
  5
2BD
 100
AcDbEntity
  8
0
 100
AcDbVertex
 100
AcDb2dVertex
 10
6537994.81
 20
5570994.3
 42
0.0
 70
0
  0
SEQEND
  5
2BE
 100
AcDbEntity
  8
0
  0
POLYLINE
  5
2BF
 100
AcDbEntity
  8
219-Linia granicy
  6
219-1000
 62
7
 370
13
 100
AcDb2dPolyline
 66
1
 10
0
 20
0
 70
128
  0
VERTEX
  5
2C0
 100
AcDbEntity
  8
0
 100
AcDbVertex
 100
AcDb2dVertex
 10
6537957.984
 20
5570993.04
 42
0.0
 70
0
  0
VERTEX
  5
2C1
 100
AcDbEntity
  8
0
 100
AcDbVertex
 100
AcDb2dVertex
 10
6537954.87
 20
5570997.33
 42
0.0
 70
0
  0
SEQEND
  5
2C2
 100
AcDbEntity
  8
0
  0
POLYLINE
  5
2C3
 100
AcDbEntity
  8
219-Linia granicy
  6
219-1000
 62
7
 370
13
 100
AcDb2dPolyline
 66
1
 10
0
 20
0
 70
128
  0
VERTEX
  5
2C4
 100
AcDbEntity
  8
0
 100
AcDbVertex
 100
AcDb2dVertex
 10
6537954.05
 20
5571017.75
 42
0.0
 70
0
  0
VERTEX
  5
2C5
 100
AcDbEntity
  8
0
 100
AcDbVertex
 100
AcDb2dVertex
 10
6537946.61
 20
5571015.5
 42
0.0
 70
0
  0
SEQEND
  5
2C6
 100
AcDbEntity
  8
0
  0
POLYLINE
  5
2C7
 100
AcDbEntity
  8
219-Linia granicy
  6
219-1000
 62
7
 370
13
 100
AcDb2dPolyline
 66
1
 10
0
 20
0
 70
128
  0
VERTEX
  5
2C8
 100
AcDbEntity
  8
0
 100
AcDbVertex
 100
AcDb2dVertex
 10
6537966.84
 20
5571030.97
 42
0.0
 70
0
  0
VERTEX
  5
2C9
 100
AcDbEntity
  8
0
 100
AcDbVertex
 100
AcDb2dVertex
 10
6537954.39
 20
5571041.63
 42
0.0
 70
0
  0
SEQEND
  5
2CA
 100
AcDbEntity
  8
0
  0
POLYLINE
  5
2CB
 100
AcDbEntity
  8
219-Linia granicy
  6
219-1000
 62
7
 370
13
 100
AcDb2dPolyline
 66
1
 10
0
 20
0
 70
128
  0
VERTEX
  5
2CC
 100
AcDbEntity
  8
0
 100
AcDbVertex
 100
AcDb2dVertex
 10
6537975.96
 20
5571077.89
 42
0.0
 70
0
  0
VERTEX
  5
2CD
 100
AcDbEntity
  8
0
 100
AcDbVertex
 100
AcDb2dVertex
 10
6537963.57
 20
5571076.99
 42
0.0
 70
0
  0
SEQEND
  5
2CE
 100
AcDbEntity
  8
0
  0
POLYLINE
  5
2CF
 100
AcDbEntity
  8
219-Linia granicy
  6
219-1000
 62
7
 370
13
 100
AcDb2dPolyline
 66
1
 10
0
 20
0
 70
128
  0
VERTEX
  5
2D0
 100
AcDbEntity
  8
0
 100
AcDbVertex
 100
AcDb2dVertex
 10
6537986.62
 20
5571081.08
 42
0.0
 70
0
  0
VERTEX
  5
2D1
 100
AcDbEntity
  8
0
 100
AcDbVertex
 100
AcDb2dVertex
 10
6537975.96
 20
5571077.89
 42
0.0
 70
0
  0
SEQEND
  5
2D2
 100
AcDbEntity
  8
0
  0
POLYLINE
  5
2D3
 100
AcDbEntity
  8
219-Linia granicy
  6
219-1000
 62
7
 370
13
 100
AcDb2dPolyline
 66
1
 10
0
 20
0
 70
128
  0
VERTEX
  5
2D4
 100
AcDbEntity
  8
0
 100
AcDbVertex
 100
AcDb2dVertex
 10
6538021.28
 20
5571077.232
 42
0.0
 70
0
  0
VERTEX
  5
2D5
 100
AcDbEntity
  8
0
 100
AcDbVertex
 100
AcDb2dVertex
 10
6537990.43
 20
5571024.98
 42
0.0
 70
0
  0
SEQEND
  5
2D6
 100
AcDbEntity
  8
0
  0
POLYLINE
  5
2D7
 100
AcDbEntity
  8
219-Linia granicy
  6
219-1000
 62
7
 370
13
 100
AcDb2dPolyline
 66
1
 10
0
 20
0
 70
128
  0
VERTEX
  5
2D8
 100
AcDbEntity
  8
0
 100
AcDbVertex
 100
AcDb2dVertex
 10
6537954.85
 20
5571016.29
 42
0.0
 70
0
  0
VERTEX
  5
2D9
 100
AcDbEntity
  8
0
 100
AcDbVertex
 100
AcDb2dVertex
 10
6537954.87
 20
5570997.33
 42
0.0
 70
0
  0
SEQEND
  5
2DA
 100
AcDbEntity
  8
0
  0
POLYLINE
  5
2DB
 100
AcDbEntity
  8
219-Linia granicy
  6
219-1000
 62
7
 370
13
 100
AcDb2dPolyline
 66
1
 10
0
 20
0
 70
128
  0
VERTEX
  5
2DC
 100
AcDbEntity
  8
0
 100
AcDbVertex
 100
AcDb2dVertex
 10
6537930.75
 20
5571016.7
 42
0.0
 70
0
  0
VERTEX
  5
2DD
 100
AcDbEntity
  8
0
 100
AcDbVertex
 100
AcDb2dVertex
 10
6537925.4
 20
5571006.2
 42
0.0
 70
0
  0
SEQEND
  5
2DE
 100
AcDbEntity
  8
0
  0
POLYLINE
  5
2DF
 100
AcDbEntity
  8
219-Linia granicy
  6
219-1000
 62
7
 370
13
 100
AcDb2dPolyline
 66
1
 10
0
 20
0
 70
128
  0
VERTEX
  5
2E0
 100
AcDbEntity
  8
0
 100
AcDbVertex
 100
AcDb2dVertex
 10
6537946.61
 20
5571015.5
 42
0.0
 70
0
  0
VERTEX
  5
2E1
 100
AcDbEntity
  8
0
 100
AcDbVertex
 100
AcDb2dVertex
 10
6537945.79
 20
5571015.01
 42
0.0
 70
0
  0
SEQEND
  5
2E2
 100
AcDbEntity
  8
0
  0
POLYLINE
  5
2E3
 100
AcDbEntity
  8
219-Linia granicy
  6
219-1000
 62
7
 370
13
 100
AcDb2dPolyline
 66
1
 10
0
 20
0
 70
128
  0
VERTEX
  5
2E4
 100
AcDbEntity
  8
0
 100
AcDbVertex
 100
AcDb2dVertex
 10
6537964.0
 20
5571015.9
 42
0.0
 70
0
  0
VERTEX
  5
2E5
 100
AcDbEntity
  8
0
 100
AcDbVertex
 100
AcDb2dVertex
 10
6537954.85
 20
5571016.29
 42
0.0
 70
0
  0
SEQEND
  5
2E6
 100
AcDbEntity
  8
0
  0
POLYLINE
  5
2E7
 100
AcDbEntity
  8
219-Linia granicy
  6
219-1000
 62
7
 370
13
 100
AcDb2dPolyline
 66
1
 10
0
 20
0
 70
128
  0
VERTEX
  5
2E8
 100
AcDbEntity
  8
0
 100
AcDbVertex
 100
AcDb2dVertex
 10
6537950.73
 20
5571040.75
 42
0.0
 70
0
  0
VERTEX
  5
2E9
 100
AcDbEntity
  8
0
 100
AcDbVertex
 100
AcDb2dVertex
 10
6537948.66
 20
5571037.32
 42
0.0
 70
0
  0
SEQEND
  5
2EA
 100
AcDbEntity
  8
0
  0
POLYLINE
  5
2EB
 100
AcDbEntity
  8
219-Linia granicy
  6
219-1000
 62
7
 370
13
 100
AcDb2dPolyline
 66
1
 10
0
 20
0
 70
128
  0
VERTEX
  5
2EC
 100
AcDbEntity
  8
0
 100
AcDbVertex
 100
AcDb2dVertex
 10
6537948.66
 20
5571037.32
 42
0.0
 70
0
  0
VERTEX
  5
2ED
 100
AcDbEntity
  8
0
 100
AcDbVertex
 100
AcDb2dVertex
 10
6537942.69
 20
5571036.78
 42
0.0
 70
0
  0
SEQEND
  5
2EE
 100
AcDbEntity
  8
0
  0
POLYLINE
  5
2EF
 100
AcDbEntity
  8
219-Linia granicy
  6
219-1000
 62
7
 370
13
 100
AcDb2dPolyline
 66
1
 10
0
 20
0
 70
128
  0
VERTEX
  5
2F0
 100
AcDbEntity
  8
0
 100
AcDbVertex
 100
AcDb2dVertex
 10
6537990.43
 20
5571024.98
 42
0.0
 70
0
  0
VERTEX
  5
2F1
 100
AcDbEntity
  8
0
 100
AcDbVertex
 100
AcDb2dVertex
 10
6537985.49
 20
5571025.1
 42
0.0
 70
0
  0
SEQEND
  5
2F2
 100
AcDbEntity
  8
0
  0
POLYLINE
  5
2F3
 100
AcDbEntity
  8
219-Linia granicy
  6
219-1000
 62
7
 370
13
 100
AcDb2dPolyline
 66
1
 10
0
 20
0
 70
128
  0
VERTEX
  5
2F4
 100
AcDbEntity
  8
0
 100
AcDbVertex
 100
AcDb2dVertex
 10
6537989.22
 20
5571000.85
 42
0.0
 70
0
  0
VERTEX
  5
2F5
 100
AcDbEntity
  8
0
 100
AcDbVertex
 100
AcDb2dVertex
 10
6537987.28
 20
5571008.63
 42
0.0
 70
0
  0
SEQEND
  5
2F6
 100
AcDbEntity
  8
0
  0
POLYLINE
  5
2F7
 100
AcDbEntity
  8
219-Linia granicy
  6
219-1000
 62
7
 370
13
 100
AcDb2dPolyline
 66
1
 10
0
 20
0
 70
128
  0
VERTEX
  5
2F8
 100
AcDbEntity
  8
0
 100
AcDbVertex
 100
AcDb2dVertex
 10
6537994.81
 20
5570994.3
 42
0.0
 70
0
  0
VERTEX
  5
2F9
 100
AcDbEntity
  8
0
 100
AcDbVertex
 100
AcDb2dVertex
 10
6537989.22
 20
5571000.85
 42
0.0
 70
0
  0
SEQEND
  5
2FA
 100
AcDbEntity
  8
0
  0
INSERT
  5
2FB
 100
AcDbEntity
  8
203-Punkt załamania granicy działki nie stabilizowany
  6
CONTINUOUS
 62
7
 370
13
 100
AcDbBlockReference
 66
0
  2
203
 10
6537964.0
 20
5571015.9
 50
0.0
 41
1.0
 42
1.0
  0
INSERT
  5
2FC
 100
AcDbEntity
  8
203-Punkt załamania granicy działki nie stabilizowany
  6
CONTINUOUS
 62
7
 370
13
 100
AcDbBlockReference
 66
0
  2
203
 10
6537955.27
 20
5571076.39
 50
0.0
 41
1.0
 42
1.0
  0
INSERT
  5
2FD
 100
AcDbEntity
  8
203-Punkt załamania granicy działki nie stabilizowany
  6
CONTINUOUS
 62
7
 370
13
 100
AcDbBlockReference
 66
0
  2
203
 10
6537954.85
 20
5571016.29
 50
0.0
 41
1.0
 42
1.0
  0
INSERT
  5
2FE
 100
AcDbEntity
  8
203-Punkt załamania granicy działki nie stabilizowany
  6
CONTINUOUS
 62
7
 370
13
 100
AcDbBlockReference
 66
0
  2
203
 10
6537954.87
 20
5570997.33
 50
0.0
 41
1.0
 42
1.0
  0
INSERT
  5
2FF
 100
AcDbEntity
  8
203-Punkt załamania granicy działki nie stabilizowany
  6
CONTINUOUS
 62
7
 370
13
 100
AcDbBlockReference
 66
0
  2
203
 10
6537951.26
 20
5571065.53
 50
0.0
 41
1.0
 42
1.0
  0
INSERT
  5
300
 100
AcDbEntity
  8
203-Punkt załamania granicy działki nie stabilizowany
  6
CONTINUOUS
 62
7
 370
13
 100
AcDbBlockReference
 66
0
  2
203
 10
6537946.61
 20
5571015.5
 50
0.0
 41
1.0
 42
1.0
  0
INSERT
  5
301
 100
AcDbEntity
  8
203-Punkt załamania granicy działki nie stabilizowany
  6
CONTINUOUS
 62
7
 370
13
 100
AcDbBlockReference
 66
0
  2
203
 10
6537946.55
 20
5571011.72
 50
0.0
 41
1.0
 42
1.0
  0
INSERT
  5
302
 100
AcDbEntity
  8
203-Punkt załamania granicy działki nie stabilizowany
  6
CONTINUOUS
 62
7
 370
13
 100
AcDbBlockReference
 66
0
  2
203
 10
6537945.79
 20
5571015.01
 50
0.0
 41
1.0
 42
1.0
  0
INSERT
  5
303
 100
AcDbEntity
  8
203-Punkt załamania granicy działki nie stabilizowany
  6
CONTINUOUS
 62
7
 370
13
 100
AcDbBlockReference
 66
0
  2
203
 10
6537940.33
 20
5571071.02
 50
0.0
 41
1.0
 42
1.0
  0
INSERT
  5
304
 100
AcDbEntity
  8
203-Punkt załamania granicy działki nie stabilizowany
  6
CONTINUOUS
 62
7
 370
13
 100
AcDbBlockReference
 66
0
  2
203
 10
6537939.76
 20
5571069.68
 50
0.0
 41
1.0
 42
1.0
  0
INSERT
  5
305
 100
AcDbEntity
  8
203-Punkt załamania granicy działki nie stabilizowany
  6
CONTINUOUS
 62
7
 370
13
 100
AcDbBlockReference
 66
0
  2
203
 10
6537933.7
 20
5571023.46
 50
0.0
 41
1.0
 42
1.0
  0
INSERT
  5
306
 100
AcDbEntity
  8
203-Punkt załamania granicy działki nie stabilizowany
  6
CONTINUOUS
 62
7
 370
13
 100
AcDbBlockReference
 66
0
  2
203
 10
6537931.96
 20
5571019.66
 50
0.0
 41
1.0
 42
1.0
  0
INSERT
  5
307
 100
AcDbEntity
  8
203-Punkt załamania granicy działki nie stabilizowany
  6
CONTINUOUS
 62
7
 370
13
 100
AcDbBlockReference
 66
0
  2
203
 10
6537931.42
 20
5571020.87
 50
0.0
 41
1.0
 42
1.0
  0
INSERT
  5
308
 100
AcDbEntity
  8
203-Punkt załamania granicy działki nie stabilizowany
  6
CONTINUOUS
 62
7
 370
13
 100
AcDbBlockReference
 66
0
  2
203
 10
6537930.97
 20
5571019.73
 50
0.0
 41
1.0
 42
1.0
  0
INSERT
  5
309
 100
AcDbEntity
  8
203-Punkt załamania granicy działki nie stabilizowany
  6
CONTINUOUS
 62
7
 370
13
 100
AcDbBlockReference
 66
0
  2
203
 10
6537930.75
 20
5571016.7
 50
0.0
 41
1.0
 42
1.0
  0
INSERT
  5
30A
 100
AcDbEntity
  8
203-Punkt załamania granicy działki nie stabilizowany
  6
CONTINUOUS
 62
7
 370
13
 100
AcDbBlockReference
 66
0
  2
203
 10
6537930.37
 20
5571039.44
 50
0.0
 41
1.0
 42
1.0
  0
INSERT
  5
30B
 100
AcDbEntity
  8
203-Punkt załamania granicy działki nie stabilizowany
  6
CONTINUOUS
 62
7
 370
13
 100
AcDbBlockReference
 66
0
  2
203
 10
6537929.89
 20
5571038.66
 50
0.0
 41
1.0
 42
1.0
  0
INSERT
  5
30C
 100
AcDbEntity
  8
203-Punkt załamania granicy działki nie stabilizowany
  6
CONTINUOUS
 62
7
 370
13
 100
AcDbBlockReference
 66
0
  2
203
 10
6537929.02
 20
5571037.23
 50
0.0
 41
1.0
 42
1.0
  0
INSERT
  5
30D
 100
AcDbEntity
  8
203-Punkt załamania granicy działki nie stabilizowany
  6
CONTINUOUS
 62
7
 370
13
 100
AcDbBlockReference
 66
0
  2
203
 10
6537928.92
 20
5571035.55
 50
0.0
 41
1.0
 42
1.0
  0
INSERT
  5
30E
 100
AcDbEntity
  8
203-Punkt załamania granicy działki nie stabilizowany
  6
CONTINUOUS
 62
7
 370
13
 100
AcDbBlockReference
 66
0
  2
203
 10
6537928.93
 20
5571021.86
 50
0.0
 41
1.0
 42
1.0
  0
INSERT
  5
30F
 100
AcDbEntity
  8
203-Punkt załamania granicy działki nie stabilizowany
  6
CONTINUOUS
 62
7
 370
13
 100
AcDbBlockReference
 66
0
  2
203
 10
6537928.39
 20
5571025.66
 50
0.0
 41
1.0
 42
1.0
  0
INSERT
  5
310
 100
AcDbEntity
  8
203-Punkt załamania granicy działki nie stabilizowany
  6
CONTINUOUS
 62
7
 370
13
 100
AcDbBlockReference
 66
0
  2
203
 10
6537928.27
 20
5571024.64
 50
0.0
 41
1.0
 42
1.0
  0
INSERT
  5
311
 100
AcDbEntity
  8
203-Punkt załamania granicy działki nie stabilizowany
  6
CONTINUOUS
 62
7
 370
13
 100
AcDbBlockReference
 66
0
  2
203
 10
6537927.42
 20
5571039.58
 50
0.0
 41
1.0
 42
1.0
  0
INSERT
  5
312
 100
AcDbEntity
  8
203-Punkt załamania granicy działki nie stabilizowany
  6
CONTINUOUS
 62
7
 370
13
 100
AcDbBlockReference
 66
0
  2
203
 10
6537926.87
 20
5571018.37
 50
0.0
 41
1.0
 42
1.0
  0
INSERT
  5
313
 100
AcDbEntity
  8
203-Punkt załamania granicy działki nie stabilizowany
  6
CONTINUOUS
 62
7
 370
13
 100
AcDbBlockReference
 66
0
  2
203
 10
6537925.7
 20
5571035.34
 50
0.0
 41
1.0
 42
1.0
  0
INSERT
  5
314
 100
AcDbEntity
  8
203-Punkt załamania granicy działki nie stabilizowany
  6
CONTINUOUS
 62
7
 370
13
 100
AcDbBlockReference
 66
0
  2
203
 10
6537925.4
 20
5571006.2
 50
0.0
 41
1.0
 42
1.0
  0
POLYLINE
  5
315
 100
AcDbEntity
  8
217-Granica konturu klasyfikcyjnego
  6
217-1000
 62
3
 370
13
 100
AcDb2dPolyline
 66
1
 10
0
 20
0
 70
128
  0
VERTEX
  5
316
 100
AcDbEntity
  8
0
 100
AcDbVertex
 100
AcDb2dVertex
 10
6537948.295
 20
5570993.04
 42
0.0
 70
0
  0
VERTEX
  5
317
 100
AcDbEntity
  8
0
 100
AcDbVertex
 100
AcDb2dVertex
 10
6537942.96
 20
5571001.17
 42
0.0
 70
0
  0
SEQEND
  5
318
 100
AcDbEntity
  8
0
  0
POLYLINE
  5
319
 100
AcDbEntity
  8
217-Granica konturu klasyfikcyjnego
  6
217-1000
 62
3
 370
13
 100
AcDb2dPolyline
 66
1
 10
0
 20
0
 70
128
  0
VERTEX
  5
31A
 100
AcDbEntity
  8
0
 100
AcDbVertex
 100
AcDb2dVertex
 10
6537942.96
 20
5571001.17
 42
0.0
 70
0
  0
VERTEX
  5
31B
 100
AcDbEntity
  8
0
 100
AcDbVertex
 100
AcDb2dVertex
 10
6537951.62
 20
5571005.66
 42
0.0
 70
0
  0
SEQEND
  5
31C
 100
AcDbEntity
  8
0
  0
POLYLINE
  5
31D
 100
AcDbEntity
  8
217-Granica konturu klasyfikcyjnego
  6
217-1000
 62
3
 370
13
 100
AcDb2dPolyline
 66
1
 10
0
 20
0
 70
128
  0
VERTEX
  5
31E
 100
AcDbEntity
  8
0
 100
AcDbVertex
 100
AcDb2dVertex
 10
6537951.62
 20
5571005.66
 42
0.0
 70
0
  0
VERTEX
  5
31F
 100
AcDbEntity
  8
0
 100
AcDbVertex
 100
AcDb2dVertex
 10
6537952.55
 20
5571004.02
 42
0.0
 70
0
  0
SEQEND
  5
320
 100
AcDbEntity
  8
0
  0
POLYLINE
  5
321
 100
AcDbEntity
  8
217-Granica konturu klasyfikcyjnego
  6
217-1000
 62
3
 370
13
 100
AcDb2dPolyline
 66
1
 10
0
 20
0
 70
128
  0
VERTEX
  5
322
 100
AcDbEntity
  8
0
 100
AcDbVertex
 100
AcDb2dVertex
 10
6537952.55
 20
5571004.02
 42
0.0
 70
0
  0
VERTEX
  5
323
 100
AcDbEntity
  8
0
 100
AcDbVertex
 100
AcDb2dVertex
 10
6537954.85
 20
5571016.29
 42
0.0
 70
0
  0
SEQEND
  5
324
 100
AcDbEntity
  8
0
  0
MLINE
  5
325
 100
AcDbEntity
  8
217-Granica konturu po granicy działki
  6
217a-1000
 62
3
 370
13
 100
AcDbMline
  2
217a-1000
 340
54
 40
1.0
 70
1
 71
1
 72
2
 73
1
 10
6537954.85
 20
5571016.29
 210
0.0
 220
0.0
 230
1.0
 11
6537954.85
 21
5571016.29
 12
-0.876
 22
-0.482
 13
0.482
 23
-0.876
 74
2
 41
0.5
 41
0.0
 75
0
 11
6537946.55
 21
5571011.72
 12
-0.876
 22
-0.482
 13
0.482
 23
-0.876
 74
2
 41
0.5
 41
0.0
 75
0
  0
MLINE
  5
326
 100
AcDbEntity
  8
217-Granica konturu po granicy działki
  6
217a-1000
 62
3
 370
13
 100
AcDbMline
  2
217a-1000
 340
54
 40
1.0
 70
1
 71
1
 72
2
 73
1
 10
6537946.55
 20
5571011.72
 210
0.0
 220
0.0
 230
1.0
 11
6537946.55
 21
5571011.72
 12
-0.869
 22
-0.495
 13
0.495
 23
-0.869
 74
2
 41
0.5
 41
0.0
 75
0
 11
6537924.07
 21
5570998.899
 12
-0.869
 22
-0.495
 13
0.495
 23
-0.869
 74
2
 41
0.5
 41
0.0
 75
0
  0
MLINE
  5
327
 100
AcDbEntity
  8
217-Granica konturu po granicy działki
  6
217a-1000
 62
3
 370
13
 100
AcDbMline
  2
217a-1000
 340
54
 40
1.0
 70
1
 71
1
 72
2
 73
1
 10
6537945.79
 20
5571015.01
 210
0.0
 220
0.0
 230
1.0
 11
6537945.79
 21
5571015.01
 12
-0.558
 22
0.83
 13
-0.83
 23
-0.558
 74
2
 41
0.5
 41
0.0
 75
0
 11
6537929.89
 21
5571038.66
 12
-0.558
 22
0.83
 13
-0.83
 23
-0.558
 74
2
 41
0.5
 41
0.0
 75
0
  0
MLINE
  5
328
 100
AcDbEntity
  8
217-Granica konturu po granicy działki
  6
217a-1000
 62
3
 370
13
 100
AcDbMline
  2
217a-1000
 340
54
 40
1.0
 70
1
 71
1
 72
2
 73
1
 10
6537929.89
 20
5571038.66
 210
0.0
 220
0.0
 230
1.0
 11
6537929.89
 21
5571038.66
 12
-0.52
 22
-0.854
 13
0.854
 23
-0.52
 74
2
 41
0.5
 41
0.0
 75
0
 11
6537929.02
 21
5571037.23
 12
-0.52
 22
-0.854
 13
0.854
 23
-0.52
 74
2
 41
0.5
 41
0.0
 75
0
  0
MLINE
  5
329
 100
AcDbEntity
  8
217-Granica konturu po granicy działki
  6
217a-1000
 62
3
 370
13
 100
AcDbMline
  2
217a-1000
 340
54
 40
1.0
 70
1
 71
1
 72
2
 73
1
 10
6537929.02
 20
5571037.23
 210
0.0
 220
0.0
 230
1.0
 11
6537929.02
 21
5571037.23
 12
-0.059
 22
-0.998
 13
0.998
 23
-0.059
 74
2
 41
0.5
 41
0.0
 75
0
 11
6537928.92
 21
5571035.55
 12
-0.059
 22
-0.998
 13
0.998
 23
-0.059
 74
2
 41
0.5
 41
0.0
 75
0
  0
MLINE
  5
32A
 100
AcDbEntity
  8
217-Granica konturu po granicy działki
  6
217a-1000
 62
3
 370
13
 100
AcDbMline
  2
217a-1000
 340
54
 40
1.0
 70
1
 71
1
 72
2
 73
1
 10
6537928.92
 20
5571035.55
 210
0.0
 220
0.0
 230
1.0
 11
6537928.92
 21
5571035.55
 12
-0.054
 22
-0.999
 13
0.999
 23
-0.054
 74
2
 41
0.5
 41
0.0
 75
0
 11
6537928.39
 21
5571025.66
 12
-0.054
 22
-0.999
 13
0.999
 23
-0.054
 74
2
 41
0.5
 41
0.0
 75
0
  0
MLINE
  5
32B
 100
AcDbEntity
  8
217-Granica konturu po granicy działki
  6
217a-1000
 62
3
 370
13
 100
AcDbMline
  2
217a-1000
 340
54
 40
1.0
 70
1
 71
1
 72
2
 73
1
 10
6537928.39
 20
5571025.66
 210
0.0
 220
0.0
 230
1.0
 11
6537928.39
 21
5571025.66
 12
-0.117
 22
-0.993
 13
0.993
 23
-0.117
 74
2
 41
0.5
 41
0.0
 75
0
 11
6537928.27
 21
5571024.64
 12
-0.117
 22
-0.993
 13
0.993
 23
-0.117
 74
2
 41
0.5
 41
0.0
 75
0
  0
MLINE
  5
32C
 100
AcDbEntity
  8
217-Granica konturu po granicy działki
  6
217a-1000
 62
3
 370
13
 100
AcDbMline
  2
217a-1000
 340
54
 40
1.0
 70
1
 71
1
 72
2
 73
1
 10
6537928.27
 20
5571024.64
 210
0.0
 220
0.0
 230
1.0
 11
6537928.27
 21
5571024.64
 12
-0.677
 22
-0.736
 13
0.736
 23
-0.677
 74
2
 41
0.5
 41
0.0
 75
0
 11
6537924.07
 21
5571020.079
 12
-0.677
 22
-0.736
 13
0.736
 23
-0.677
 74
2
 41
0.5
 41
0.0
 75
0
  0
MLINE
  5
32D
 100
AcDbEntity
  8
217-Granica konturu po granicy działki
  6
217a-1000
 62
3
 370
13
 100
AcDbMline
  2
217a-1000
 340
54
 40
1.0
 70
1
 71
1
 72
2
 73
1
 10
6537924.07
 20
5571002.299
 210
0.0
 220
0.0
 230
1.0
 11
6537924.07
 21
5571002.299
 12
0.863
 22
0.505
 13
-0.505
 23
0.863
 74
2
 41
0.5
 41
0.0
 75
0
 11
6537945.79
 21
5571015.01
 12
0.863
 22
0.505
 13
-0.505
 23
0.863
 74
2
 41
0.5
 41
0.0
 75
0
  0
MLINE
  5
32E
 100
AcDbEntity
  8
217-Granica konturu po granicy działki
  6
217a-1000
 62
3
 370
13
 100
AcDbMline
  2
217a-1000
 340
54
 40
1.0
 70
1
 71
1
 72
2
 73
1
 10
6537928.92
 20
5571035.55
 210
0.0
 220
0.0
 230
1.0
 11
6537928.92
 21
5571035.55
 12
-0.998
 22
-0.065
 13
0.065
 23
-0.998
 74
2
 41
0.5
 41
0.0
 75
0
 11
6537925.7
 21
5571035.34
 12
-0.998
 22
-0.065
 13
0.065
 23
-0.998
 74
2
 41
0.5
 41
0.0
 75
0
  0
MLINE
  5
32F
 100
AcDbEntity
  8
217-Granica konturu po granicy działki
  6
217a-1000
 62
3
 370
13
 100
AcDbMline
  2
217a-1000
 340
54
 40
1.0
 70
1
 71
1
 72
2
 73
1
 10
6537925.7
 20
5571035.34
 210
0.0
 220
0.0
 230
1.0
 11
6537925.7
 21
5571035.34
 12
-0.38
 22
-0.925
 13
0.925
 23
-0.38
 74
2
 41
0.5
 41
0.0
 75
0
 11
6537924.07
 21
5571031.374
 12
-0.38
 22
-0.925
 13
0.925
 23
-0.38
 74
2
 41
0.5
 41
0.0
 75
0
  0
MLINE
  5
330
 100
AcDbEntity
  8
217-Granica konturu po granicy działki
  6
217a-1000
 62
3
 370
13
 100
AcDbMline
  2
217a-1000
 340
54
 40
1.0
 70
1
 71
1
 72
2
 73
1
 10
6537946.61
 20
5571015.5
 210
0.0
 220
0.0
 230
1.0
 11
6537946.61
 21
5571015.5
 12
-0.561
 22
0.828
 13
-0.828
 23
-0.561
 74
2
 41
0.5
 41
0.0
 75
0
 11
6537930.37
 21
5571039.44
 12
-0.561
 22
0.828
 13
-0.828
 23
-0.561
 74
2
 41
0.5
 41
0.0
 75
0
  0
MLINE
  5
331
 100
AcDbEntity
  8
217-Granica konturu po granicy działki
  6
217a-1000
 62
3
 370
13
 100
AcDbMline
  2
217a-1000
 340
54
 40
1.0
 70
1
 71
1
 72
2
 73
1
 10
6537930.37
 20
5571039.44
 210
0.0
 220
0.0
 230
1.0
 11
6537930.37
 21
5571039.44
 12
-0.999
 22
0.047
 13
-0.047
 23
-0.999
 74
2
 41
0.5
 41
0.0
 75
0
 11
6537927.42
 21
5571039.58
 12
-0.999
 22
0.047
 13
-0.047
 23
-0.999
 74
2
 41
0.5
 41
0.0
 75
0
  0
MLINE
  5
332
 100
AcDbEntity
  8
217-Granica konturu po granicy działki
  6
217a-1000
 62
3
 370
13
 100
AcDbMline
  2
217a-1000
 340
54
 40
1.0
 70
1
 71
1
 72
2
 73
1
 10
6537927.42
 20
5571039.58
 210
0.0
 220
0.0
 230
1.0
 11
6537927.42
 21
5571039.58
 12
-0.376
 22
-0.927
 13
0.927
 23
-0.376
 74
2
 41
0.5
 41
0.0
 75
0
 11
6537925.7
 21
5571035.34
 12
-0.376
 22
-0.927
 13
0.927
 23
-0.376
 74
2
 41
0.5
 41
0.0
 75
0
  0
MLINE
  5
333
 100
AcDbEntity
  8
217-Granica konturu po granicy działki
  6
217a-1000
 62
3
 370
13
 100
AcDbMline
  2
217a-1000
 340
54
 40
1.0
 70
1
 71
1
 72
2
 73
1
 10
6537945.79
 20
5571015.01
 210
0.0
 220
0.0
 230
1.0
 11
6537945.79
 21
5571015.01
 12
0.858
 22
0.513
 13
-0.513
 23
0.858
 74
2
 41
0.5
 41
0.0
 75
0
 11
6537946.61
 21
5571015.5
 12
0.858
 22
0.513
 13
-0.513
 23
0.858
 74
2
 41
0.5
 41
0.0
 75
0
  0
MLINE
  5
334
 100
AcDbEntity
  8
217-Granica konturu po granicy działki
  6
217a-1000
 62
3
 370
13
 100
AcDbMline
  2
217a-1000
 340
54
 40
1.0
 70
1
 71
1
 72
2
 73
1
 10
6537992.767
 20
5571084.31
 210
0.0
 220
0.0
 230
1.0
 11
6537992.767
 21
5571084.31
 12
-0.885
 22
-0.465
 13
0.465
 23
-0.885
 74
2
 41
0.5
 41
0.0
 75
0
 11
6537986.62
 21
5571081.08
 12
-0.885
 22
-0.465
 13
0.465
 23
-0.885
 74
2
 41
0.5
 41
0.0
 75
0
  0
MLINE
  5
335
 100
AcDbEntity
  8
217-Granica konturu po granicy działki
  6
217a-1000
 62
3
 370
13
 100
AcDbMline
  2
217a-1000
 340
54
 40
1.0
 70
1
 71
1
 72
2
 73
1
 10
6537986.62
 20
5571081.08
 210
0.0
 220
0.0
 230
1.0
 11
6537986.62
 21
5571081.08
 12
-0.958
 22
-0.287
 13
0.287
 23
-0.958
 74
2
 41
0.5
 41
0.0
 75
0
 11
6537975.96
 21
5571077.89
 12
-0.958
 22
-0.287
 13
0.287
 23
-0.958
 74
2
 41
0.5
 41
0.0
 75
0
  0
MLINE
  5
336
 100
AcDbEntity
  8
217-Granica konturu po granicy działki
  6
217a-1000
 62
3
 370
13
 100
AcDbMline
  2
217a-1000
 340
54
 40
1.0
 70
1
 71
1
 72
2
 73
1
 10
6537975.96
 20
5571077.89
 210
0.0
 220
0.0
 230
1.0
 11
6537975.96
 21
5571077.89
 12
-0.997
 22
-0.072
 13
0.072
 23
-0.997
 74
2
 41
0.5
 41
0.0
 75
0
 11
6537963.57
 21
5571076.99
 12
-0.997
 22
-0.072
 13
0.072
 23
-0.997
 74
2
 41
0.5
 41
0.0
 75
0
  0
MLINE
  5
337
 100
AcDbEntity
  8
217-Granica konturu po granicy działki
  6
217a-1000
 62
3
 370
13
 100
AcDbMline
  2
217a-1000
 340
54
 40
1.0
 70
1
 71
1
 72
2
 73
1
 10
6537963.57
 20
5571076.99
 210
0.0
 220
0.0
 230
1.0
 11
6537963.57
 21
5571076.99
 12
-0.997
 22
-0.072
 13
0.072
 23
-0.997
 74
2
 41
0.5
 41
0.0
 75
0
 11
6537955.27
 21
5571076.39
 12
-0.997
 22
-0.072
 13
0.072
 23
-0.997
 74
2
 41
0.5
 41
0.0
 75
0
  0
MLINE
  5
338
 100
AcDbEntity
  8
217-Granica konturu po granicy działki
  6
217a-1000
 62
3
 370
13
 100
AcDbMline
  2
217a-1000
 340
54
 40
1.0
 70
1
 71
1
 72
2
 73
1
 10
6537955.27
 20
5571076.39
 210
0.0
 220
0.0
 230
1.0
 11
6537955.27
 21
5571076.39
 12
-0.346
 22
-0.938
 13
0.938
 23
-0.346
 74
2
 41
0.5
 41
0.0
 75
0
 11
6537951.26
 21
5571065.53
 12
-0.346
 22
-0.938
 13
0.938
 23
-0.346
 74
2
 41
0.5
 41
0.0
 75
0
  0
MLINE
  5
339
 100
AcDbEntity
  8
217-Granica konturu po granicy działki
  6
217a-1000
 62
3
 370
13
 100
AcDbMline
  2
217a-1000
 340
54
 40
1.0
 70
1
 71
1
 72
2
 73
1
 10
6537951.26
 20
5571065.53
 210
0.0
 220
0.0
 230
1.0
 11
6537951.26
 21
5571065.53
 12
-0.941
 22
0.339
 13
-0.339
 23
-0.941
 74
2
 41
0.5
 41
0.0
 75
0
 11
6537939.76
 21
5571069.68
 12
-0.941
 22
0.339
 13
-0.339
 23
-0.941
 74
2
 41
0.5
 41
0.0
 75
0
  0
MLINE
  5
33A
 100
AcDbEntity
  8
217-Granica konturu po granicy działki
  6
217a-1000
 62
3
 370
13
 100
AcDbMline
  2
217a-1000
 340
54
 40
1.0
 70
1
 71
1
 72
2
 73
1
 10
6537939.76
 20
5571069.68
 210
0.0
 220
0.0
 230
1.0
 11
6537939.76
 21
5571069.68
 12
-0.379
 22
-0.925
 13
0.925
 23
-0.379
 74
2
 41
0.5
 41
0.0
 75
0
 11
6537927.42
 21
5571039.58
 12
-0.379
 22
-0.925
 13
0.925
 23
-0.379
 74
2
 41
0.5
 41
0.0
 75
0
  0
MLINE
  5
33B
 100
AcDbEntity
  8
217-Granica konturu po granicy działki
  6
217a-1000
 62
3
 370
13
 100
AcDbMline
  2
217a-1000
 340
54
 40
1.0
 70
1
 71
1
 72
2
 73
1
 10
6537930.37
 20
5571039.44
 210
0.0
 220
0.0
 230
1.0
 11
6537930.37
 21
5571039.44
 12
0.998
 22
-0.061
 13
0.061
 23
0.998
 74
2
 41
0.5
 41
0.0
 75
0
 11
6537940.83
 21
5571038.8
 12
0.998
 22
-0.061
 13
0.061
 23
0.998
 74
2
 41
0.5
 41
0.0
 75
0
  0
MLINE
  5
33C
 100
AcDbEntity
  8
217-Granica konturu po granicy działki
  6
217a-1000
 62
3
 370
13
 100
AcDbMline
  2
217a-1000
 340
54
 40
1.0
 70
1
 71
1
 72
2
 73
1
 10
6537940.83
 20
5571038.8
 210
0.0
 220
0.0
 230
1.0
 11
6537940.83
 21
5571038.8
 12
0.996
 22
-0.087
 13
0.087
 23
0.996
 74
2
 41
0.5
 41
0.0
 75
0
 11
6537946.9
 21
5571038.27
 12
0.996
 22
-0.087
 13
0.087
 23
0.996
 74
2
 41
0.5
 41
0.0
 75
0
  0
MLINE
  5
33D
 100
AcDbEntity
  8
217-Granica konturu po granicy działki
  6
217a-1000
 62
3
 370
13
 100
AcDbMline
  2
217a-1000
 340
54
 40
1.0
 70
1
 71
1
 72
2
 73
1
 10
6537946.9
 20
5571038.27
 210
0.0
 220
0.0
 230
1.0
 11
6537946.9
 21
5571038.27
 12
0.51
 22
0.86
 13
-0.86
 23
0.51
 74
2
 41
0.5
 41
0.0
 75
0
 11
6537949.25
 21
5571042.23
 12
0.51
 22
0.86
 13
-0.86
 23
0.51
 74
2
 41
0.5
 41
0.0
 75
0
  0
MLINE
  5
33E
 100
AcDbEntity
  8
217-Granica konturu po granicy działki
  6
217a-1000
 62
3
 370
13
 100
AcDbMline
  2
217a-1000
 340
54
 40
1.0
 70
1
 71
1
 72
2
 73
1
 10
6537949.25
 20
5571042.23
 210
0.0
 220
0.0
 230
1.0
 11
6537949.25
 21
5571042.23
 12
0.969
 22
0.247
 13
-0.247
 23
0.969
 74
2
 41
0.5
 41
0.0
 75
0
 11
6537955.57
 21
5571043.84
 12
0.969
 22
0.247
 13
-0.247
 23
0.969
 74
2
 41
0.5
 41
0.0
 75
0
  0
MLINE
  5
33F
 100
AcDbEntity
  8
217-Granica konturu po granicy działki
  6
217a-1000
 62
3
 370
13
 100
AcDbMline
  2
217a-1000
 340
54
 40
1.0
 70
1
 71
1
 72
2
 73
1
 10
6537955.57
 20
5571043.84
 210
0.0
 220
0.0
 230
1.0
 11
6537955.57
 21
5571043.84
 12
0.74
 22
-0.672
 13
0.672
 23
0.74
 74
2
 41
0.5
 41
0.0
 75
0
 11
6537967.79
 21
5571032.74
 12
0.74
 22
-0.672
 13
0.672
 23
0.74
 74
2
 41
0.5
 41
0.0
 75
0
  0
MLINE
  5
340
 100
AcDbEntity
  8
217-Granica konturu po granicy działki
  6
217a-1000
 62
3
 370
13
 100
AcDbMline
  2
217a-1000
 340
54
 40
1.0
 70
1
 71
1
 72
2
 73
1
 10
6537967.79
 20
5571032.74
 210
0.0
 220
0.0
 230
1.0
 11
6537967.79
 21
5571032.74
 12
0.954
 22
-0.3
 13
0.3
 23
0.954
 74
2
 41
0.5
 41
0.0
 75
0
 11
6537986.44
 21
5571026.88
 12
0.954
 22
-0.3
 13
0.3
 23
0.954
 74
2
 41
0.5
 41
0.0
 75
0
  0
MLINE
  5
341
 100
AcDbEntity
  8
217-Granica konturu po granicy działki
  6
217a-1000
 62
3
 370
13
 100
AcDbMline
  2
217a-1000
 340
54
 40
1.0
 70
1
 71
1
 72
2
 73
1
 10
6537986.44
 20
5571026.88
 210
0.0
 220
0.0
 230
1.0
 11
6537986.44
 21
5571026.88
 12
0.448
 22
0.894
 13
-0.894
 23
0.448
 74
2
 41
0.5
 41
0.0
 75
0
 11
6537998.63
 21
5571051.18
 12
0.448
 22
0.894
 13
-0.894
 23
0.448
 74
2
 41
0.5
 41
0.0
 75
0
  0
MLINE
  5
342
 100
AcDbEntity
  8
217-Granica konturu po granicy działki
  6
217a-1000
 62
3
 370
13
 100
AcDbMline
  2
217a-1000
 340
54
 40
1.0
 70
1
 71
1
 72
2
 73
1
 10
6537998.63
 20
5571051.18
 210
0.0
 220
0.0
 230
1.0
 11
6537998.63
 21
5571051.18
 12
0.502
 22
0.865
 13
-0.865
 23
0.502
 74
2
 41
0.5
 41
0.0
 75
0
 11
6538017.885
 21
5571084.31
 12
0.502
 22
0.865
 13
-0.865
 23
0.502
 74
2
 41
0.5
 41
0.0
 75
0
  0
MLINE
  5
343
 100
AcDbEntity
  8
217-Granica konturu po granicy działki
  6
217a-1000
 62
3
 370
13
 100
AcDbMline
  2
217a-1000
 340
54
 40
1.0
 70
1
 71
1
 72
3
 73
1
 10
6537954.05
 20
5571017.75
 210
0.0
 220
0.0
 230
1.0
 11
6537954.05
 21
5571017.75
 12
-0.494
 22
0.869
 13
-0.869
 23
-0.494
 74
2
 41
0.5
 41
0.0
 75
0
 11
6537944.82
 21
5571033.98
 12
-0.605
 22
0.796
 13
-0.836
 23
-0.552
 74
2
 41
0.501
 41
0.0
 75
0
 11
6537942.69
 21
5571036.78
 12
-0.605
 22
0.796
 13
-0.796
 23
-0.605
 74
2
 41
0.5
 41
0.0
 75
0
  0
MLINE
  5
344
 100
AcDbEntity
  8
217-Granica konturu po granicy działki
  6
217a-1000
 62
3
 370
13
 100
AcDbMline
  2
217a-1000
 340
54
 40
1.0
 70
1
 71
1
 72
2
 73
1
 10
6537942.69
 20
5571036.78
 210
0.0
 220
0.0
 230
1.0
 11
6537942.69
 21
5571036.78
 12
-0.677
 22
0.736
 13
-0.736
 23
-0.677
 74
2
 41
0.5
 41
0.0
 75
0
 11
6537940.83
 21
5571038.8
 12
-0.677
 22
0.736
 13
-0.736
 23
-0.677
 74
2
 41
0.5
 41
0.0
 75
0
  0
MLINE
  5
345
 100
AcDbEntity
  8
217-Granica konturu po granicy działki
  6
217a-1000
 62
3
 370
13
 100
AcDbMline
  2
217a-1000
 340
54
 40
1.0
 70
1
 71
1
 72
2
 73
1
 10
6537946.61
 20
5571015.5
 210
0.0
 220
0.0
 230
1.0
 11
6537946.61
 21
5571015.5
 12
0.957
 22
0.289
 13
-0.289
 23
0.957
 74
2
 41
0.5
 41
0.0
 75
0
 11
6537954.05
 21
5571017.75
 12
0.957
 22
0.289
 13
-0.289
 23
0.957
 74
2
 41
0.5
 41
0.0
 75
0
  0
MLINE
  5
346
 100
AcDbEntity
  8
217-Granica konturu po granicy działki
  6
217a-1000
 62
3
 370
13
 100
AcDbMline
  2
217a-1000
 340
54
 40
1.0
 70
1
 71
1
 72
2
 73
1
 10
6537945.431
 20
5571084.31
 210
0.0
 220
0.0
 230
1.0
 11
6537945.431
 21
5571084.31
 12
-0.358
 22
-0.934
 13
0.934
 23
-0.358
 74
2
 41
0.5
 41
0.0
 75
0
 11
6537940.33
 21
5571071.02
 12
-0.358
 22
-0.934
 13
0.934
 23
-0.358
 74
2
 41
0.5
 41
0.0
 75
0
  0
MLINE
  5
347
 100
AcDbEntity
  8
217-Granica konturu po granicy działki
  6
217a-1000
 62
3
 370
13
 100
AcDbMline
  2
217a-1000
 340
54
 40
1.0
 70
1
 71
1
 72
2
 73
1
 10
6537940.33
 20
5571071.02
 210
0.0
 220
0.0
 230
1.0
 11
6537940.33
 21
5571071.02
 12
-0.391
 22
-0.92
 13
0.92
 23
-0.391
 74
2
 41
0.5
 41
0.0
 75
0
 11
6537939.76
 21
5571069.68
 12
-0.391
 22
-0.92
 13
0.92
 23
-0.391
 74
2
 41
0.5
 41
0.0
 75
0
  0
MLINE
  5
348
 100
AcDbEntity
  8
217-Granica konturu po granicy działki
  6
217a-1000
 62
3
 370
13
 100
AcDbMline
  2
217a-1000
 340
54
 40
1.0
 70
1
 71
1
 72
2
 73
1
 10
6537955.27
 20
5571076.39
 210
0.0
 220
0.0
 230
1.0
 11
6537955.27
 21
5571076.39
 12
0.436
 22
0.9
 13
-0.9
 23
0.436
 74
2
 41
0.5
 41
0.0
 75
0
 11
6537959.111
 21
5571084.31
 12
0.436
 22
0.9
 13
-0.9
 23
0.436
 74
2
 41
0.5
 41
0.0
 75
0
  0
MLINE
  5
349
 100
AcDbEntity
  8
217-Granica konturu po granicy działki
  6
217a-1000
 62
3
 370
13
 100
AcDbMline
  2
217a-1000
 340
54
 40
1.0
 70
1
 71
1
 72
2
 73
1
 10
6537942.69
 20
5571036.78
 210
0.0
 220
0.0
 230
1.0
 11
6537942.69
 21
5571036.78
 12
0.996
 22
0.09
 13
-0.09
 23
0.996
 74
2
 41
0.5
 41
0.0
 75
0
 11
6537948.66
 21
5571037.32
 12
0.996
 22
0.09
 13
-0.09
 23
0.996
 74
2
 41
0.5
 41
0.0
 75
0
  0
MLINE
  5
34A
 100
AcDbEntity
  8
217-Granica konturu po granicy działki
  6
217a-1000
 62
3
 370
13
 100
AcDbMline
  2
217a-1000
 340
54
 40
1.0
 70
1
 71
1
 72
2
 73
1
 10
6537948.66
 20
5571037.32
 210
0.0
 220
0.0
 230
1.0
 11
6537948.66
 21
5571037.32
 12
0.517
 22
0.856
 13
-0.856
 23
0.517
 74
2
 41
0.5
 41
0.0
 75
0
 11
6537950.73
 21
5571040.75
 12
0.517
 22
0.856
 13
-0.856
 23
0.517
 74
2
 41
0.5
 41
0.0
 75
0
  0
MLINE
  5
34B
 100
AcDbEntity
  8
217-Granica konturu po granicy działki
  6
217a-1000
 62
3
 370
13
 100
AcDbMline
  2
217a-1000
 340
54
 40
1.0
 70
1
 71
1
 72
2
 73
1
 10
6537950.73
 20
5571040.75
 210
0.0
 220
0.0
 230
1.0
 11
6537950.73
 21
5571040.75
 12
0.972
 22
0.234
 13
-0.234
 23
0.972
 74
2
 41
0.5
 41
0.0
 75
0
 11
6537954.39
 21
5571041.63
 12
0.972
 22
0.234
 13
-0.234
 23
0.972
 74
2
 41
0.5
 41
0.0
 75
0
  0
MLINE
  5
34C
 100
AcDbEntity
  8
217-Granica konturu po granicy działki
  6
217a-1000
 62
3
 370
13
 100
AcDbMline
  2
217a-1000
 340
54
 40
1.0
 70
1
 71
1
 72
2
 73
1
 10
6537954.39
 20
5571041.63
 210
0.0
 220
0.0
 230
1.0
 11
6537954.39
 21
5571041.63
 12
0.76
 22
-0.65
 13
0.65
 23
0.76
 74
2
 41
0.5
 41
0.0
 75
0
 11
6537966.84
 21
5571030.97
 12
0.76
 22
-0.65
 13
0.65
 23
0.76
 74
2
 41
0.5
 41
0.0
 75
0
  0
MLINE
  5
34D
 100
AcDbEntity
  8
217-Granica konturu po granicy działki
  6
217a-1000
 62
3
 370
13
 100
AcDbMline
  2
217a-1000
 340
54
 40
1.0
 70
1
 71
1
 72
2
 73
1
 10
6537966.84
 20
5571030.97
 210
0.0
 220
0.0
 230
1.0
 11
6537966.84
 21
5571030.97
 12
0.954
 22
-0.3
 13
0.3
 23
0.954
 74
2
 41
0.5
 41
0.0
 75
0
 11
6537985.49
 21
5571025.1
 12
0.954
 22
-0.3
 13
0.3
 23
0.954
 74
2
 41
0.5
 41
0.0
 75
0
  0
MLINE
  5
34E
 100
AcDbEntity
  8
217-Granica konturu po granicy działki
  6
217a-1000
 62
3
 370
13
 100
AcDbMline
  2
217a-1000
 340
54
 40
1.0
 70
1
 71
1
 72
2
 73
1
 10
6537985.49
 20
5571025.1
 210
0.0
 220
0.0
 230
1.0
 11
6537985.49
 21
5571025.1
 12
0.471
 22
0.882
 13
-0.882
 23
0.471
 74
2
 41
0.5
 41
0.0
 75
0
 11
6537986.44
 21
5571026.88
 12
0.471
 22
0.882
 13
-0.882
 23
0.471
 74
2
 41
0.5
 41
0.0
 75
0
  0
MLINE
  5
34F
 100
AcDbEntity
  8
217-Granica konturu po granicy działki
  6
217a-1000
 62
3
 370
13
 100
AcDbMline
  2
217a-1000
 340
54
 40
1.0
 70
1
 71
1
 72
6
 73
1
 10
6537954.05
 20
5571017.75
 210
0.0
 220
0.0
 230
1.0
 11
6537954.05
 21
5571017.75
 12
0.999
 22
-0.033
 13
0.033
 23
0.999
 74
2
 41
0.5
 41
0.0
 75
0
 11
6537962.15
 21
5571017.48
 12
0.999
 22
0.05
 13
-0.008
 23
1.001
 74
2
 41
0.5
 41
0.0
 75
0
 11
6537966.13
 21
5571017.68
 12
0.982
 22
0.187
 13
-0.119
 23
0.995
 74
2
 41
0.501
 41
0.0
 75
0
 11
6537970.92
 21
5571018.59
 12
0.99
 22
0.144
 13
-0.165
 23
0.986
 74
2
 41
0.5
 41
0.0
 75
0
 11
6537977.38
 21
5571019.53
 12
0.961
 22
0.277
 13
-0.211
 23
0.98
 74
2
 41
0.501
 41
0.0
 75
0
 11
6537983.45
 21
5571021.28
 12
0.961
 22
0.277
 13
-0.277
 23
0.961
 74
2
 41
0.5
 41
0.0
 75
0
  0
MLINE
  5
350
 100
AcDbEntity
  8
217-Granica konturu po granicy działki
  6
217a-1000
 62
3
 370
13
 100
AcDbMline
  2
217a-1000
 340
54
 40
1.0
 70
1
 71
1
 72
2
 73
1
 10
6537983.45
 20
5571021.28
 210
0.0
 220
0.0
 230
1.0
 11
6537983.45
 21
5571021.28
 12
0.471
 22
0.882
 13
-0.882
 23
0.471
 74
2
 41
0.5
 41
0.0
 75
0
 11
6537985.49
 21
5571025.1
 12
0.471
 22
0.882
 13
-0.882
 23
0.471
 74
2
 41
0.5
 41
0.0
 75
0
  0
MLINE
  5
351
 100
AcDbEntity
  8
217-Granica konturu po granicy działki
  6
217a-1000
 62
3
 370
13
 100
AcDbMline
  2
217a-1000
 340
54
 40
1.0
 70
1
 71
1
 72
2
 73
1
 10
6538021.28
 20
5571077.232
 210
0.0
 220
0.0
 230
1.0
 11
6538021.28
 21
5571077.232
 12
-0.508
 22
-0.861
 13
0.861
 23
-0.508
 74
2
 41
0.5
 41
0.0
 75
0
 11
6537990.43
 21
5571024.98
 12
-0.508
 22
-0.861
 13
0.861
 23
-0.508
 74
2
 41
0.5
 41
0.0
 75
0
  0
MLINE
  5
352
 100
AcDbEntity
  8
217-Granica konturu po granicy działki
  6
217a-1000
 62
3
 370
13
 100
AcDbMline
  2
217a-1000
 340
54
 40
1.0
 70
1
 71
1
 72
2
 73
1
 10
6537990.43
 20
5571024.98
 210
0.0
 220
0.0
 230
1.0
 11
6537990.43
 21
5571024.98
 12
-0.244
 22
-0.97
 13
0.97
 23
-0.244
 74
2
 41
0.5
 41
0.0
 75
0
 11
6537987.54
 21
5571013.47
 12
-0.244
 22
-0.97
 13
0.97
 23
-0.244
 74
2
 41
0.5
 41
0.0
 75
0
  0
POLYLINE
  5
353
 100
AcDbEntity
  8
217-Granica konturu klasyfikcyjnego
  6
217-1000
 62
3
 370
13
 100
AcDb2dPolyline
 66
1
 10
0
 20
0
 70
128
  0
VERTEX
  5
354
 100
AcDbEntity
  8
0
 100
AcDbVertex
 100
AcDb2dVertex
 10
6537987.54
 20
5571013.47
 42
0.0
 70
0
  0
VERTEX
  5
355
 100
AcDbEntity
  8
0
 100
AcDbVertex
 100
AcDb2dVertex
 10
6538021.28
 20
5571041.647
 42
0.0
 70
0
  0
SEQEND
  5
356
 100
AcDbEntity
  8
0
  0
POLYLINE
  5
357
 100
AcDbEntity
  8
218-Granica użytku
  6
218-1000
 62
3
 370
13
 100
AcDb2dPolyline
 66
1
 10
0
 20
0
 70
128
  0
VERTEX
  5
358
 100
AcDbEntity
  8
0
 100
AcDbVertex
 100
AcDb2dVertex
 10
6537948.295
 20
5570993.04
 42
0.0
 70
0
  0
VERTEX
  5
359
 100
AcDbEntity
  8
0
 100
AcDbVertex
 100
AcDb2dVertex
 10
6537942.96
 20
5571001.17
 42
0.0
 70
0
  0
SEQEND
  5
35A
 100
AcDbEntity
  8
0
  0
POLYLINE
  5
35B
 100
AcDbEntity
  8
218-Granica użytku
  6
218-1000
 62
3
 370
13
 100
AcDb2dPolyline
 66
1
 10
0
 20
0
 70
128
  0
VERTEX
  5
35C
 100
AcDbEntity
  8
0
 100
AcDbVertex
 100
AcDb2dVertex
 10
6537942.96
 20
5571001.17
 42
0.0
 70
0
  0
VERTEX
  5
35D
 100
AcDbEntity
  8
0
 100
AcDbVertex
 100
AcDb2dVertex
 10
6537951.62
 20
5571005.66
 42
0.0
 70
0
  0
SEQEND
  5
35E
 100
AcDbEntity
  8
0
  0
POLYLINE
  5
35F
 100
AcDbEntity
  8
218-Granica użytku
  6
218-1000
 62
3
 370
13
 100
AcDb2dPolyline
 66
1
 10
0
 20
0
 70
128
  0
VERTEX
  5
360
 100
AcDbEntity
  8
0
 100
AcDbVertex
 100
AcDb2dVertex
 10
6537951.62
 20
5571005.66
 42
0.0
 70
0
  0
VERTEX
  5
361
 100
AcDbEntity
  8
0
 100
AcDbVertex
 100
AcDb2dVertex
 10
6537952.55
 20
5571004.02
 42
0.0
 70
0
  0
SEQEND
  5
362
 100
AcDbEntity
  8
0
  0
POLYLINE
  5
363
 100
AcDbEntity
  8
218-Granica użytku
  6
218-1000
 62
3
 370
13
 100
AcDb2dPolyline
 66
1
 10
0
 20
0
 70
128
  0
VERTEX
  5
364
 100
AcDbEntity
  8
0
 100
AcDbVertex
 100
AcDb2dVertex
 10
6537952.55
 20
5571004.02
 42
0.0
 70
0
  0
VERTEX
  5
365
 100
AcDbEntity
  8
0
 100
AcDbVertex
 100
AcDb2dVertex
 10
6537954.85
 20
5571016.29
 42
0.0
 70
0
  0
SEQEND
  5
366
 100
AcDbEntity
  8
0
  0
MLINE
  5
367
 100
AcDbEntity
  8
218-Granica użytku po granicy działki
  6
218a-1000
 62
3
 370
13
 100
AcDbMline
  2
218a-1000
 340
71
 40
1.0
 70
1
 71
1
 72
2
 73
1
 10
6537954.85
 20
5571016.29
 210
0.0
 220
0.0
 230
1.0
 11
6537954.85
 21
5571016.29
 12
-0.876
 22
-0.482
 13
0.482
 23
-0.876
 74
2
 41
0.5
 41
0.0
 75
0
 11
6537946.55
 21
5571011.72
 12
-0.876
 22
-0.482
 13
0.482
 23
-0.876
 74
2
 41
0.5
 41
0.0
 75
0
  0
MLINE
  5
368
 100
AcDbEntity
  8
218-Granica użytku po granicy działki
  6
218a-1000
 62
3
 370
13
 100
AcDbMline
  2
218a-1000
 340
71
 40
1.0
 70
1
 71
1
 72
2
 73
1
 10
6537946.55
 20
5571011.72
 210
0.0
 220
0.0
 230
1.0
 11
6537946.55
 21
5571011.72
 12
-0.869
 22
-0.495
 13
0.495
 23
-0.869
 74
2
 41
0.5
 41
0.0
 75
0
 11
6537924.07
 21
5570998.899
 12
-0.869
 22
-0.495
 13
0.495
 23
-0.869
 74
2
 41
0.5
 41
0.0
 75
0
  0
MLINE
  5
369
 100
AcDbEntity
  8
218-Granica użytku po granicy działki
  6
218a-1000
 62
3
 370
13
 100
AcDbMline
  2
218a-1000
 340
71
 40
1.0
 70
1
 71
1
 72
2
 73
1
 10
6537945.79
 20
5571015.01
 210
0.0
 220
0.0
 230
1.0
 11
6537945.79
 21
5571015.01
 12
-0.558
 22
0.83
 13
-0.83
 23
-0.558
 74
2
 41
0.5
 41
0.0
 75
0
 11
6537929.89
 21
5571038.66
 12
-0.558
 22
0.83
 13
-0.83
 23
-0.558
 74
2
 41
0.5
 41
0.0
 75
0
  0
MLINE
  5
36A
 100
AcDbEntity
  8
218-Granica użytku po granicy działki
  6
218a-1000
 62
3
 370
13
 100
AcDbMline
  2
218a-1000
 340
71
 40
1.0
 70
1
 71
1
 72
2
 73
1
 10
6537929.89
 20
5571038.66
 210
0.0
 220
0.0
 230
1.0
 11
6537929.89
 21
5571038.66
 12
-0.52
 22
-0.854
 13
0.854
 23
-0.52
 74
2
 41
0.5
 41
0.0
 75
0
 11
6537929.02
 21
5571037.23
 12
-0.52
 22
-0.854
 13
0.854
 23
-0.52
 74
2
 41
0.5
 41
0.0
 75
0
  0
MLINE
  5
36B
 100
AcDbEntity
  8
218-Granica użytku po granicy działki
  6
218a-1000
 62
3
 370
13
 100
AcDbMline
  2
218a-1000
 340
71
 40
1.0
 70
1
 71
1
 72
2
 73
1
 10
6537929.02
 20
5571037.23
 210
0.0
 220
0.0
 230
1.0
 11
6537929.02
 21
5571037.23
 12
-0.059
 22
-0.998
 13
0.998
 23
-0.059
 74
2
 41
0.5
 41
0.0
 75
0
 11
6537928.92
 21
5571035.55
 12
-0.059
 22
-0.998
 13
0.998
 23
-0.059
 74
2
 41
0.5
 41
0.0
 75
0
  0
MLINE
  5
36C
 100
AcDbEntity
  8
218-Granica użytku po granicy działki
  6
218a-1000
 62
3
 370
13
 100
AcDbMline
  2
218a-1000
 340
71
 40
1.0
 70
1
 71
1
 72
2
 73
1
 10
6537928.92
 20
5571035.55
 210
0.0
 220
0.0
 230
1.0
 11
6537928.92
 21
5571035.55
 12
-0.054
 22
-0.999
 13
0.999
 23
-0.054
 74
2
 41
0.5
 41
0.0
 75
0
 11
6537928.39
 21
5571025.66
 12
-0.054
 22
-0.999
 13
0.999
 23
-0.054
 74
2
 41
0.5
 41
0.0
 75
0
  0
MLINE
  5
36D
 100
AcDbEntity
  8
218-Granica użytku po granicy działki
  6
218a-1000
 62
3
 370
13
 100
AcDbMline
  2
218a-1000
 340
71
 40
1.0
 70
1
 71
1
 72
2
 73
1
 10
6537928.39
 20
5571025.66
 210
0.0
 220
0.0
 230
1.0
 11
6537928.39
 21
5571025.66
 12
-0.117
 22
-0.993
 13
0.993
 23
-0.117
 74
2
 41
0.5
 41
0.0
 75
0
 11
6537928.27
 21
5571024.64
 12
-0.117
 22
-0.993
 13
0.993
 23
-0.117
 74
2
 41
0.5
 41
0.0
 75
0
  0
MLINE
  5
36E
 100
AcDbEntity
  8
218-Granica użytku po granicy działki
  6
218a-1000
 62
3
 370
13
 100
AcDbMline
  2
218a-1000
 340
71
 40
1.0
 70
1
 71
1
 72
2
 73
1
 10
6537928.27
 20
5571024.64
 210
0.0
 220
0.0
 230
1.0
 11
6537928.27
 21
5571024.64
 12
-0.677
 22
-0.736
 13
0.736
 23
-0.677
 74
2
 41
0.5
 41
0.0
 75
0
 11
6537924.07
 21
5571020.079
 12
-0.677
 22
-0.736
 13
0.736
 23
-0.677
 74
2
 41
0.5
 41
0.0
 75
0
  0
MLINE
  5
36F
 100
AcDbEntity
  8
218-Granica użytku po granicy działki
  6
218a-1000
 62
3
 370
13
 100
AcDbMline
  2
218a-1000
 340
71
 40
1.0
 70
1
 71
1
 72
2
 73
1
 10
6537924.07
 20
5571002.299
 210
0.0
 220
0.0
 230
1.0
 11
6537924.07
 21
5571002.299
 12
0.863
 22
0.505
 13
-0.505
 23
0.863
 74
2
 41
0.5
 41
0.0
 75
0
 11
6537945.79
 21
5571015.01
 12
0.863
 22
0.505
 13
-0.505
 23
0.863
 74
2
 41
0.5
 41
0.0
 75
0
  0
MLINE
  5
370
 100
AcDbEntity
  8
218-Granica użytku po granicy działki
  6
218a-1000
 62
3
 370
13
 100
AcDbMline
  2
218a-1000
 340
71
 40
1.0
 70
1
 71
1
 72
6
 73
1
 10
6537983.45
 20
5571021.28
 210
0.0
 220
0.0
 230
1.0
 11
6537983.45
 21
5571021.28
 12
-0.961
 22
-0.277
 13
0.277
 23
-0.961
 74
2
 41
0.5
 41
0.0
 75
0
 11
6537977.38
 21
5571019.53
 12
-0.99
 22
-0.144
 13
0.211
 23
-0.98
 74
2
 41
0.501
 41
0.0
 75
0
 11
6537970.92
 21
5571018.59
 12
-0.982
 22
-0.187
 13
0.165
 23
-0.986
 74
2
 41
0.5
 41
0.0
 75
0
 11
6537966.13
 21
5571017.68
 12
-0.999
 22
-0.05
 13
0.119
 23
-0.995
 74
2
 41
0.501
 41
0.0
 75
0
 11
6537962.15
 21
5571017.48
 12
-0.999
 22
0.033
 13
0.008
 23
-1.001
 74
2
 41
0.5
 41
0.0
 75
0
 11
6537954.05
 21
5571017.75
 12
-0.999
 22
0.033
 13
-0.033
 23
-0.999
 74
2
 41
0.5
 41
0.0
 75
0
  0
MLINE
  5
371
 100
AcDbEntity
  8
218-Granica użytku po granicy działki
  6
218a-1000
 62
3
 370
13
 100
AcDbMline
  2
218a-1000
 340
71
 40
1.0
 70
1
 71
1
 72
2
 73
1
 10
6537954.05
 20
5571017.75
 210
0.0
 220
0.0
 230
1.0
 11
6537954.05
 21
5571017.75
 12
-0.957
 22
-0.289
 13
0.289
 23
-0.957
 74
2
 41
0.5
 41
0.0
 75
0
 11
6537946.61
 21
5571015.5
 12
-0.957
 22
-0.289
 13
0.289
 23
-0.957
 74
2
 41
0.5
 41
0.0
 75
0
  0
MLINE
  5
372
 100
AcDbEntity
  8
218-Granica użytku po granicy działki
  6
218a-1000
 62
3
 370
13
 100
AcDbMline
  2
218a-1000
 340
71
 40
1.0
 70
1
 71
1
 72
2
 73
1
 10
6537946.61
 20
5571015.5
 210
0.0
 220
0.0
 230
1.0
 11
6537946.61
 21
5571015.5
 12
-0.858
 22
-0.513
 13
0.513
 23
-0.858
 74
2
 41
0.5
 41
0.0
 75
0
 11
6537945.79
 21
5571015.01
 12
-0.858
 22
-0.513
 13
0.513
 23
-0.858
 74
2
 41
0.5
 41
0.0
 75
0
  0
MLINE
  5
373
 100
AcDbEntity
  8
218-Granica użytku po granicy działki
  6
218a-1000
 62
3
 370
13
 100
AcDbMline
  2
218a-1000
 340
71
 40
1.0
 70
1
 71
1
 72
2
 73
1
 10
6537954.85
 20
5571016.29
 210
0.0
 220
0.0
 230
1.0
 11
6537954.85
 21
5571016.29
 12
0.999
 22
-0.043
 13
0.043
 23
0.999
 74
2
 41
0.5
 41
0.0
 75
0
 11
6537964.0
 21
5571015.9
 12
0.999
 22
-0.043
 13
0.043
 23
0.999
 74
2
 41
0.5
 41
0.0
 75
0
  0
MLINE
  5
374
 100
AcDbEntity
  8
218-Granica użytku po granicy działki
  6
218a-1000
 62
3
 370
13
 100
AcDbMline
  2
218a-1000
 340
71
 40
1.0
 70
1
 71
1
 72
2
 73
1
 10
6537964.0
 20
5571015.9
 210
0.0
 220
0.0
 230
1.0
 11
6537964.0
 21
5571015.9
 12
0.998
 22
-0.056
 13
0.056
 23
0.998
 74
2
 41
0.5
 41
0.0
 75
0
 11
6537982.01
 21
5571014.89
 12
0.998
 22
-0.056
 13
0.056
 23
0.998
 74
2
 41
0.5
 41
0.0
 75
0
  0
MLINE
  5
375
 100
AcDbEntity
  8
218-Granica użytku po granicy działki
  6
218a-1000
 62
3
 370
13
 100
AcDbMline
  2
218a-1000
 340
71
 40
1.0
 70
1
 71
1
 72
2
 73
1
 10
6537982.01
 20
5571014.89
 210
0.0
 220
0.0
 230
1.0
 11
6537982.01
 21
5571014.89
 12
0.22
 22
0.976
 13
-0.976
 23
0.22
 74
2
 41
0.5
 41
0.0
 75
0
 11
6537983.45
 21
5571021.28
 12
0.22
 22
0.976
 13
-0.976
 23
0.22
 74
2
 41
0.5
 41
0.0
 75
0
  0
MLINE
  5
376
 100
AcDbEntity
  8
218-Granica użytku po granicy działki
  6
218a-1000
 62
3
 370
13
 100
AcDbMline
  2
218a-1000
 340
71
 40
1.0
 70
1
 71
1
 72
2
 73
1
 10
6537928.92
 20
5571035.55
 210
0.0
 220
0.0
 230
1.0
 11
6537928.92
 21
5571035.55
 12
-0.998
 22
-0.065
 13
0.065
 23
-0.998
 74
2
 41
0.5
 41
0.0
 75
0
 11
6537925.7
 21
5571035.34
 12
-0.998
 22
-0.065
 13
0.065
 23
-0.998
 74
2
 41
0.5
 41
0.0
 75
0
  0
MLINE
  5
377
 100
AcDbEntity
  8
218-Granica użytku po granicy działki
  6
218a-1000
 62
3
 370
13
 100
AcDbMline
  2
218a-1000
 340
71
 40
1.0
 70
1
 71
1
 72
2
 73
1
 10
6537925.7
 20
5571035.34
 210
0.0
 220
0.0
 230
1.0
 11
6537925.7
 21
5571035.34
 12
-0.38
 22
-0.925
 13
0.925
 23
-0.38
 74
2
 41
0.5
 41
0.0
 75
0
 11
6537924.07
 21
5571031.374
 12
-0.38
 22
-0.925
 13
0.925
 23
-0.38
 74
2
 41
0.5
 41
0.0
 75
0
  0
MLINE
  5
378
 100
AcDbEntity
  8
218-Granica użytku po granicy działki
  6
218a-1000
 62
3
 370
13
 100
AcDbMline
  2
218a-1000
 340
71
 40
1.0
 70
1
 71
1
 72
2
 73
1
 10
6537946.61
 20
5571015.5
 210
0.0
 220
0.0
 230
1.0
 11
6537946.61
 21
5571015.5
 12
-0.561
 22
0.828
 13
-0.828
 23
-0.561
 74
2
 41
0.5
 41
0.0
 75
0
 11
6537930.37
 21
5571039.44
 12
-0.561
 22
0.828
 13
-0.828
 23
-0.561
 74
2
 41
0.5
 41
0.0
 75
0
  0
MLINE
  5
379
 100
AcDbEntity
  8
218-Granica użytku po granicy działki
  6
218a-1000
 62
3
 370
13
 100
AcDbMline
  2
218a-1000
 340
71
 40
1.0
 70
1
 71
1
 72
2
 73
1
 10
6537930.37
 20
5571039.44
 210
0.0
 220
0.0
 230
1.0
 11
6537930.37
 21
5571039.44
 12
-0.999
 22
0.047
 13
-0.047
 23
-0.999
 74
2
 41
0.5
 41
0.0
 75
0
 11
6537927.42
 21
5571039.58
 12
-0.999
 22
0.047
 13
-0.047
 23
-0.999
 74
2
 41
0.5
 41
0.0
 75
0
  0
MLINE
  5
37A
 100
AcDbEntity
  8
218-Granica użytku po granicy działki
  6
218a-1000
 62
3
 370
13
 100
AcDbMline
  2
218a-1000
 340
71
 40
1.0
 70
1
 71
1
 72
2
 73
1
 10
6537927.42
 20
5571039.58
 210
0.0
 220
0.0
 230
1.0
 11
6537927.42
 21
5571039.58
 12
-0.376
 22
-0.927
 13
0.927
 23
-0.376
 74
2
 41
0.5
 41
0.0
 75
0
 11
6537925.7
 21
5571035.34
 12
-0.376
 22
-0.927
 13
0.927
 23
-0.376
 74
2
 41
0.5
 41
0.0
 75
0
  0
MLINE
  5
37B
 100
AcDbEntity
  8
218-Granica użytku po granicy działki
  6
218a-1000
 62
3
 370
13
 100
AcDbMline
  2
218a-1000
 340
71
 40
1.0
 70
1
 71
1
 72
2
 73
1
 10
6537992.767
 20
5571084.31
 210
0.0
 220
0.0
 230
1.0
 11
6537992.767
 21
5571084.31
 12
-0.885
 22
-0.465
 13
0.465
 23
-0.885
 74
2
 41
0.5
 41
0.0
 75
0
 11
6537986.62
 21
5571081.08
 12
-0.885
 22
-0.465
 13
0.465
 23
-0.885
 74
2
 41
0.5
 41
0.0
 75
0
  0
MLINE
  5
37C
 100
AcDbEntity
  8
218-Granica użytku po granicy działki
  6
218a-1000
 62
3
 370
13
 100
AcDbMline
  2
218a-1000
 340
71
 40
1.0
 70
1
 71
1
 72
2
 73
1
 10
6537986.62
 20
5571081.08
 210
0.0
 220
0.0
 230
1.0
 11
6537986.62
 21
5571081.08
 12
-0.958
 22
-0.287
 13
0.287
 23
-0.958
 74
2
 41
0.5
 41
0.0
 75
0
 11
6537975.96
 21
5571077.89
 12
-0.958
 22
-0.287
 13
0.287
 23
-0.958
 74
2
 41
0.5
 41
0.0
 75
0
  0
MLINE
  5
37D
 100
AcDbEntity
  8
218-Granica użytku po granicy działki
  6
218a-1000
 62
3
 370
13
 100
AcDbMline
  2
218a-1000
 340
71
 40
1.0
 70
1
 71
1
 72
2
 73
1
 10
6537975.96
 20
5571077.89
 210
0.0
 220
0.0
 230
1.0
 11
6537975.96
 21
5571077.89
 12
-0.997
 22
-0.072
 13
0.072
 23
-0.997
 74
2
 41
0.5
 41
0.0
 75
0
 11
6537963.57
 21
5571076.99
 12
-0.997
 22
-0.072
 13
0.072
 23
-0.997
 74
2
 41
0.5
 41
0.0
 75
0
  0
MLINE
  5
37E
 100
AcDbEntity
  8
218-Granica użytku po granicy działki
  6
218a-1000
 62
3
 370
13
 100
AcDbMline
  2
218a-1000
 340
71
 40
1.0
 70
1
 71
1
 72
2
 73
1
 10
6537963.57
 20
5571076.99
 210
0.0
 220
0.0
 230
1.0
 11
6537963.57
 21
5571076.99
 12
-0.997
 22
-0.072
 13
0.072
 23
-0.997
 74
2
 41
0.5
 41
0.0
 75
0
 11
6537955.27
 21
5571076.39
 12
-0.997
 22
-0.072
 13
0.072
 23
-0.997
 74
2
 41
0.5
 41
0.0
 75
0
  0
MLINE
  5
37F
 100
AcDbEntity
  8
218-Granica użytku po granicy działki
  6
218a-1000
 62
3
 370
13
 100
AcDbMline
  2
218a-1000
 340
71
 40
1.0
 70
1
 71
1
 72
2
 73
1
 10
6537955.27
 20
5571076.39
 210
0.0
 220
0.0
 230
1.0
 11
6537955.27
 21
5571076.39
 12
-0.346
 22
-0.938
 13
0.938
 23
-0.346
 74
2
 41
0.5
 41
0.0
 75
0
 11
6537951.26
 21
5571065.53
 12
-0.346
 22
-0.938
 13
0.938
 23
-0.346
 74
2
 41
0.5
 41
0.0
 75
0
  0
MLINE
  5
380
 100
AcDbEntity
  8
218-Granica użytku po granicy działki
  6
218a-1000
 62
3
 370
13
 100
AcDbMline
  2
218a-1000
 340
71
 40
1.0
 70
1
 71
1
 72
2
 73
1
 10
6537951.26
 20
5571065.53
 210
0.0
 220
0.0
 230
1.0
 11
6537951.26
 21
5571065.53
 12
-0.941
 22
0.339
 13
-0.339
 23
-0.941
 74
2
 41
0.5
 41
0.0
 75
0
 11
6537939.76
 21
5571069.68
 12
-0.941
 22
0.339
 13
-0.339
 23
-0.941
 74
2
 41
0.5
 41
0.0
 75
0
  0
MLINE
  5
381
 100
AcDbEntity
  8
218-Granica użytku po granicy działki
  6
218a-1000
 62
3
 370
13
 100
AcDbMline
  2
218a-1000
 340
71
 40
1.0
 70
1
 71
1
 72
2
 73
1
 10
6537939.76
 20
5571069.68
 210
0.0
 220
0.0
 230
1.0
 11
6537939.76
 21
5571069.68
 12
-0.379
 22
-0.925
 13
0.925
 23
-0.379
 74
2
 41
0.5
 41
0.0
 75
0
 11
6537927.42
 21
5571039.58
 12
-0.379
 22
-0.925
 13
0.925
 23
-0.379
 74
2
 41
0.5
 41
0.0
 75
0
  0
MLINE
  5
382
 100
AcDbEntity
  8
218-Granica użytku po granicy działki
  6
218a-1000
 62
3
 370
13
 100
AcDbMline
  2
218a-1000
 340
71
 40
1.0
 70
1
 71
1
 72
2
 73
1
 10
6537930.37
 20
5571039.44
 210
0.0
 220
0.0
 230
1.0
 11
6537930.37
 21
5571039.44
 12
0.998
 22
-0.061
 13
0.061
 23
0.998
 74
2
 41
0.5
 41
0.0
 75
0
 11
6537940.83
 21
5571038.8
 12
0.998
 22
-0.061
 13
0.061
 23
0.998
 74
2
 41
0.5
 41
0.0
 75
0
  0
MLINE
  5
383
 100
AcDbEntity
  8
218-Granica użytku po granicy działki
  6
218a-1000
 62
3
 370
13
 100
AcDbMline
  2
218a-1000
 340
71
 40
1.0
 70
1
 71
1
 72
2
 73
1
 10
6537940.83
 20
5571038.8
 210
0.0
 220
0.0
 230
1.0
 11
6537940.83
 21
5571038.8
 12
0.996
 22
-0.087
 13
0.087
 23
0.996
 74
2
 41
0.5
 41
0.0
 75
0
 11
6537946.9
 21
5571038.27
 12
0.996
 22
-0.087
 13
0.087
 23
0.996
 74
2
 41
0.5
 41
0.0
 75
0
  0
MLINE
  5
384
 100
AcDbEntity
  8
218-Granica użytku po granicy działki
  6
218a-1000
 62
3
 370
13
 100
AcDbMline
  2
218a-1000
 340
71
 40
1.0
 70
1
 71
1
 72
2
 73
1
 10
6537946.9
 20
5571038.27
 210
0.0
 220
0.0
 230
1.0
 11
6537946.9
 21
5571038.27
 12
0.51
 22
0.86
 13
-0.86
 23
0.51
 74
2
 41
0.5
 41
0.0
 75
0
 11
6537949.25
 21
5571042.23
 12
0.51
 22
0.86
 13
-0.86
 23
0.51
 74
2
 41
0.5
 41
0.0
 75
0
  0
MLINE
  5
385
 100
AcDbEntity
  8
218-Granica użytku po granicy działki
  6
218a-1000
 62
3
 370
13
 100
AcDbMline
  2
218a-1000
 340
71
 40
1.0
 70
1
 71
1
 72
2
 73
1
 10
6537949.25
 20
5571042.23
 210
0.0
 220
0.0
 230
1.0
 11
6537949.25
 21
5571042.23
 12
0.969
 22
0.247
 13
-0.247
 23
0.969
 74
2
 41
0.5
 41
0.0
 75
0
 11
6537955.57
 21
5571043.84
 12
0.969
 22
0.247
 13
-0.247
 23
0.969
 74
2
 41
0.5
 41
0.0
 75
0
  0
MLINE
  5
386
 100
AcDbEntity
  8
218-Granica użytku po granicy działki
  6
218a-1000
 62
3
 370
13
 100
AcDbMline
  2
218a-1000
 340
71
 40
1.0
 70
1
 71
1
 72
2
 73
1
 10
6537955.57
 20
5571043.84
 210
0.0
 220
0.0
 230
1.0
 11
6537955.57
 21
5571043.84
 12
0.74
 22
-0.672
 13
0.672
 23
0.74
 74
2
 41
0.5
 41
0.0
 75
0
 11
6537967.79
 21
5571032.74
 12
0.74
 22
-0.672
 13
0.672
 23
0.74
 74
2
 41
0.5
 41
0.0
 75
0
  0
MLINE
  5
387
 100
AcDbEntity
  8
218-Granica użytku po granicy działki
  6
218a-1000
 62
3
 370
13
 100
AcDbMline
  2
218a-1000
 340
71
 40
1.0
 70
1
 71
1
 72
2
 73
1
 10
6537967.79
 20
5571032.74
 210
0.0
 220
0.0
 230
1.0
 11
6537967.79
 21
5571032.74
 12
0.954
 22
-0.3
 13
0.3
 23
0.954
 74
2
 41
0.5
 41
0.0
 75
0
 11
6537986.44
 21
5571026.88
 12
0.954
 22
-0.3
 13
0.3
 23
0.954
 74
2
 41
0.5
 41
0.0
 75
0
  0
MLINE
  5
388
 100
AcDbEntity
  8
218-Granica użytku po granicy działki
  6
218a-1000
 62
3
 370
13
 100
AcDbMline
  2
218a-1000
 340
71
 40
1.0
 70
1
 71
1
 72
2
 73
1
 10
6537986.44
 20
5571026.88
 210
0.0
 220
0.0
 230
1.0
 11
6537986.44
 21
5571026.88
 12
0.448
 22
0.894
 13
-0.894
 23
0.448
 74
2
 41
0.5
 41
0.0
 75
0
 11
6537998.63
 21
5571051.18
 12
0.448
 22
0.894
 13
-0.894
 23
0.448
 74
2
 41
0.5
 41
0.0
 75
0
  0
MLINE
  5
389
 100
AcDbEntity
  8
218-Granica użytku po granicy działki
  6
218a-1000
 62
3
 370
13
 100
AcDbMline
  2
218a-1000
 340
71
 40
1.0
 70
1
 71
1
 72
2
 73
1
 10
6537998.63
 20
5571051.18
 210
0.0
 220
0.0
 230
1.0
 11
6537998.63
 21
5571051.18
 12
0.502
 22
0.865
 13
-0.865
 23
0.502
 74
2
 41
0.5
 41
0.0
 75
0
 11
6538017.885
 21
5571084.31
 12
0.502
 22
0.865
 13
-0.865
 23
0.502
 74
2
 41
0.5
 41
0.0
 75
0
  0
MLINE
  5
38A
 100
AcDbEntity
  8
218-Granica użytku po granicy działki
  6
218a-1000
 62
3
 370
13
 100
AcDbMline
  2
218a-1000
 340
71
 40
1.0
 70
1
 71
1
 72
3
 73
1
 10
6537954.05
 20
5571017.75
 210
0.0
 220
0.0
 230
1.0
 11
6537954.05
 21
5571017.75
 12
-0.494
 22
0.869
 13
-0.869
 23
-0.494
 74
2
 41
0.5
 41
0.0
 75
0
 11
6537944.82
 21
5571033.98
 12
-0.605
 22
0.796
 13
-0.836
 23
-0.552
 74
2
 41
0.501
 41
0.0
 75
0
 11
6537942.69
 21
5571036.78
 12
-0.605
 22
0.796
 13
-0.796
 23
-0.605
 74
2
 41
0.5
 41
0.0
 75
0
  0
MLINE
  5
38B
 100
AcDbEntity
  8
218-Granica użytku po granicy działki
  6
218a-1000
 62
3
 370
13
 100
AcDbMline
  2
218a-1000
 340
71
 40
1.0
 70
1
 71
1
 72
2
 73
1
 10
6537942.69
 20
5571036.78
 210
0.0
 220
0.0
 230
1.0
 11
6537942.69
 21
5571036.78
 12
-0.677
 22
0.736
 13
-0.736
 23
-0.677
 74
2
 41
0.5
 41
0.0
 75
0
 11
6537940.83
 21
5571038.8
 12
-0.677
 22
0.736
 13
-0.736
 23
-0.677
 74
2
 41
0.5
 41
0.0
 75
0
  0
MLINE
  5
38C
 100
AcDbEntity
  8
218-Granica użytku po granicy działki
  6
218a-1000
 62
3
 370
13
 100
AcDbMline
  2
218a-1000
 340
71
 40
1.0
 70
1
 71
1
 72
2
 73
1
 10
6537945.431
 20
5571084.31
 210
0.0
 220
0.0
 230
1.0
 11
6537945.431
 21
5571084.31
 12
-0.358
 22
-0.934
 13
0.934
 23
-0.358
 74
2
 41
0.5
 41
0.0
 75
0
 11
6537940.33
 21
5571071.02
 12
-0.358
 22
-0.934
 13
0.934
 23
-0.358
 74
2
 41
0.5
 41
0.0
 75
0
  0
MLINE
  5
38D
 100
AcDbEntity
  8
218-Granica użytku po granicy działki
  6
218a-1000
 62
3
 370
13
 100
AcDbMline
  2
218a-1000
 340
71
 40
1.0
 70
1
 71
1
 72
2
 73
1
 10
6537940.33
 20
5571071.02
 210
0.0
 220
0.0
 230
1.0
 11
6537940.33
 21
5571071.02
 12
-0.391
 22
-0.92
 13
0.92
 23
-0.391
 74
2
 41
0.5
 41
0.0
 75
0
 11
6537939.76
 21
5571069.68
 12
-0.391
 22
-0.92
 13
0.92
 23
-0.391
 74
2
 41
0.5
 41
0.0
 75
0
  0
MLINE
  5
38E
 100
AcDbEntity
  8
218-Granica użytku po granicy działki
  6
218a-1000
 62
3
 370
13
 100
AcDbMline
  2
218a-1000
 340
71
 40
1.0
 70
1
 71
1
 72
2
 73
1
 10
6537955.27
 20
5571076.39
 210
0.0
 220
0.0
 230
1.0
 11
6537955.27
 21
5571076.39
 12
0.436
 22
0.9
 13
-0.9
 23
0.436
 74
2
 41
0.5
 41
0.0
 75
0
 11
6537959.111
 21
5571084.31
 12
0.436
 22
0.9
 13
-0.9
 23
0.436
 74
2
 41
0.5
 41
0.0
 75
0
  0
MLINE
  5
38F
 100
AcDbEntity
  8
218-Granica użytku po granicy działki
  6
218a-1000
 62
3
 370
13
 100
AcDbMline
  2
218a-1000
 340
71
 40
1.0
 70
1
 71
1
 72
2
 73
1
 10
6537942.69
 20
5571036.78
 210
0.0
 220
0.0
 230
1.0
 11
6537942.69
 21
5571036.78
 12
0.996
 22
0.09
 13
-0.09
 23
0.996
 74
2
 41
0.5
 41
0.0
 75
0
 11
6537948.66
 21
5571037.32
 12
0.996
 22
0.09
 13
-0.09
 23
0.996
 74
2
 41
0.5
 41
0.0
 75
0
  0
MLINE
  5
390
 100
AcDbEntity
  8
218-Granica użytku po granicy działki
  6
218a-1000
 62
3
 370
13
 100
AcDbMline
  2
218a-1000
 340
71
 40
1.0
 70
1
 71
1
 72
2
 73
1
 10
6537948.66
 20
5571037.32
 210
0.0
 220
0.0
 230
1.0
 11
6537948.66
 21
5571037.32
 12
0.517
 22
0.856
 13
-0.856
 23
0.517
 74
2
 41
0.5
 41
0.0
 75
0
 11
6537950.73
 21
5571040.75
 12
0.517
 22
0.856
 13
-0.856
 23
0.517
 74
2
 41
0.5
 41
0.0
 75
0
  0
MLINE
  5
391
 100
AcDbEntity
  8
218-Granica użytku po granicy działki
  6
218a-1000
 62
3
 370
13
 100
AcDbMline
  2
218a-1000
 340
71
 40
1.0
 70
1
 71
1
 72
2
 73
1
 10
6537950.73
 20
5571040.75
 210
0.0
 220
0.0
 230
1.0
 11
6537950.73
 21
5571040.75
 12
0.972
 22
0.234
 13
-0.234
 23
0.972
 74
2
 41
0.5
 41
0.0
 75
0
 11
6537954.39
 21
5571041.63
 12
0.972
 22
0.234
 13
-0.234
 23
0.972
 74
2
 41
0.5
 41
0.0
 75
0
  0
MLINE
  5
392
 100
AcDbEntity
  8
218-Granica użytku po granicy działki
  6
218a-1000
 62
3
 370
13
 100
AcDbMline
  2
218a-1000
 340
71
 40
1.0
 70
1
 71
1
 72
2
 73
1
 10
6537954.39
 20
5571041.63
 210
0.0
 220
0.0
 230
1.0
 11
6537954.39
 21
5571041.63
 12
0.76
 22
-0.65
 13
0.65
 23
0.76
 74
2
 41
0.5
 41
0.0
 75
0
 11
6537966.84
 21
5571030.97
 12
0.76
 22
-0.65
 13
0.65
 23
0.76
 74
2
 41
0.5
 41
0.0
 75
0
  0
MLINE
  5
393
 100
AcDbEntity
  8
218-Granica użytku po granicy działki
  6
218a-1000
 62
3
 370
13
 100
AcDbMline
  2
218a-1000
 340
71
 40
1.0
 70
1
 71
1
 72
2
 73
1
 10
6537966.84
 20
5571030.97
 210
0.0
 220
0.0
 230
1.0
 11
6537966.84
 21
5571030.97
 12
0.954
 22
-0.3
 13
0.3
 23
0.954
 74
2
 41
0.5
 41
0.0
 75
0
 11
6537985.49
 21
5571025.1
 12
0.954
 22
-0.3
 13
0.3
 23
0.954
 74
2
 41
0.5
 41
0.0
 75
0
  0
MLINE
  5
394
 100
AcDbEntity
  8
218-Granica użytku po granicy działki
  6
218a-1000
 62
3
 370
13
 100
AcDbMline
  2
218a-1000
 340
71
 40
1.0
 70
1
 71
1
 72
2
 73
1
 10
6537985.49
 20
5571025.1
 210
0.0
 220
0.0
 230
1.0
 11
6537985.49
 21
5571025.1
 12
0.471
 22
0.882
 13
-0.882
 23
0.471
 74
2
 41
0.5
 41
0.0
 75
0
 11
6537986.44
 21
5571026.88
 12
0.471
 22
0.882
 13
-0.882
 23
0.471
 74
2
 41
0.5
 41
0.0
 75
0
  0
POLYLINE
  5
395
 100
AcDbEntity
  8
218-Granica użytku
  6
218-1000
 62
3
 370
13
 100
AcDb2dPolyline
 66
1
 10
0
 20
0
 70
128
  0
VERTEX
  5
396
 100
AcDbEntity
  8
0
 100
AcDbVertex
 100
AcDb2dVertex
 10
6537958.833
 20
5570993.04
 42
0.0
 70
0
  0
VERTEX
  5
397
 100
AcDbEntity
  8
0
 100
AcDbVertex
 100
AcDb2dVertex
 10
6537954.86
 20
5570999.97
 42
0.0
 70
0
  0
SEQEND
  5
398
 100
AcDbEntity
  8
0
  0
POLYLINE
  5
399
 100
AcDbEntity
  8
218-Granica użytku
  6
218-1000
 62
3
 370
13
 100
AcDb2dPolyline
 66
1
 10
0
 20
0
 70
128
  0
VERTEX
  5
39A
 100
AcDbEntity
  8
0
 100
AcDbVertex
 100
AcDb2dVertex
 10
6537954.86
 20
5570999.97
 42
0.0
 70
0
  0
VERTEX
  5
39B
 100
AcDbEntity
  8
0
 100
AcDbVertex
 100
AcDb2dVertex
 10
6537952.55
 20
5571004.02
 42
0.0
 70
0
  0
SEQEND
  5
39C
 100
AcDbEntity
  8
0
  0
MLINE
  5
39D
 100
AcDbEntity
  8
218-Granica użytku po granicy działki
  6
218a-1000
 62
3
 370
13
 100
AcDbMline
  2
218a-1000
 340
71
 40
1.0
 70
1
 71
1
 72
2
 73
1
 10
6537983.45
 20
5571021.28
 210
0.0
 220
0.0
 230
1.0
 11
6537983.45
 21
5571021.28
 12
0.471
 22
0.882
 13
-0.882
 23
0.471
 74
2
 41
0.5
 41
0.0
 75
0
 11
6537985.49
 21
5571025.1
 12
0.471
 22
0.882
 13
-0.882
 23
0.471
 74
2
 41
0.5
 41
0.0
 75
0
  0
MLINE
  5
39E
 100
AcDbEntity
  8
218-Granica użytku po granicy działki
  6
218a-1000
 62
3
 370
13
 100
AcDbMline
  2
218a-1000
 340
71
 40
1.0
 70
1
 71
1
 72
2
 73
1
 10
6537954.86
 20
5570999.97
 210
0.0
 220
0.0
 230
1.0
 11
6537954.86
 21
5570999.97
 12
-0.001
 22
1.0
 13
-1.0
 23
-0.001
 74
2
 41
0.5
 41
0.0
 75
0
 11
6537954.85
 21
5571016.29
 12
-0.001
 22
1.0
 13
-1.0
 23
-0.001
 74
2
 41
0.5
 41
0.0
 75
0
  0
POLYLINE
  5
39F
 100
AcDbEntity
  8
218-Granica użytku
  6
218-1000
 62
3
 370
13
 100
AcDb2dPolyline
 66
1
 10
0
 20
0
 70
128
  0
VERTEX
  5
3A0
 100
AcDbEntity
  8
0
 100
AcDbVertex
 100
AcDb2dVertex
 10
6538021.28
 20
5571041.647
 42
0.0
 70
0
  0
VERTEX
  5
3A1
 100
AcDbEntity
  8
0
 100
AcDbVertex
 100
AcDb2dVertex
 10
6537987.54
 20
5571013.47
 42
0.0
 70
0
  0
SEQEND
  5
3A2
 100
AcDbEntity
  8
0
  0
MLINE
  5
3A3
 100
AcDbEntity
  8
218-Granica użytku po granicy działki
  6
218a-1000
 62
3
 370
13
 100
AcDbMline
  2
218a-1000
 340
71
 40
1.0
 70
1
 71
1
 72
2
 73
1
 10
6537987.54
 20
5571013.47
 210
0.0
 220
0.0
 230
1.0
 11
6537987.54
 21
5571013.47
 12
-0.054
 22
-0.999
 13
0.999
 23
-0.054
 74
2
 41
0.5
 41
0.0
 75
0
 11
6537987.28
 21
5571008.63
 12
-0.054
 22
-0.999
 13
0.999
 23
-0.054
 74
2
 41
0.5
 41
0.0
 75
0
  0
MLINE
  5
3A4
 100
AcDbEntity
  8
218-Granica użytku po granicy działki
  6
218a-1000
 62
3
 370
13
 100
AcDbMline
  2
218a-1000
 340
71
 40
1.0
 70
1
 71
1
 72
2
 73
1
 10
6537987.28
 20
5571008.63
 210
0.0
 220
0.0
 230
1.0
 11
6537987.28
 21
5571008.63
 12
0.242
 22
-0.97
 13
0.97
 23
0.242
 74
2
 41
0.5
 41
0.0
 75
0
 11
6537989.22
 21
5571000.85
 12
0.242
 22
-0.97
 13
0.97
 23
0.242
 74
2
 41
0.5
 41
0.0
 75
0
  0
MLINE
  5
3A5
 100
AcDbEntity
  8
218-Granica użytku po granicy działki
  6
218a-1000
 62
3
 370
13
 100
AcDbMline
  2
218a-1000
 340
71
 40
1.0
 70
1
 71
1
 72
2
 73
1
 10
6537989.22
 20
5571000.85
 210
0.0
 220
0.0
 230
1.0
 11
6537989.22
 21
5571000.85
 12
0.649
 22
-0.761
 13
0.761
 23
0.649
 74
2
 41
0.5
 41
0.0
 75
0
 11
6537994.81
 21
5570994.3
 12
0.649
 22
-0.761
 13
0.761
 23
0.649
 74
2
 41
0.5
 41
0.0
 75
0
  0
MLINE
  5
3A6
 100
AcDbEntity
  8
218-Granica użytku po granicy działki
  6
218a-1000
 62
3
 370
13
 100
AcDbMline
  2
218a-1000
 340
71
 40
1.0
 70
1
 71
1
 72
2
 73
1
 10
6537994.81
 20
5570994.3
 210
0.0
 220
0.0
 230
1.0
 11
6537994.81
 21
5570994.3
 12
0.858
 22
-0.513
 13
0.513
 23
0.858
 74
2
 41
0.5
 41
0.0
 75
0
 11
6537996.919
 21
5570993.04
 12
0.858
 22
-0.513
 13
0.513
 23
0.858
 74
2
 41
0.5
 41
0.0
 75
0
  0
MLINE
  5
3A7
 100
AcDbEntity
  8
218-Granica użytku po granicy działki
  6
218a-1000
 62
3
 370
13
 100
AcDbMline
  2
218a-1000
 340
71
 40
1.0
 70
1
 71
1
 72
2
 73
1
 10
6538021.28
 20
5571077.232
 210
0.0
 220
0.0
 230
1.0
 11
6538021.28
 21
5571077.232
 12
-0.508
 22
-0.861
 13
0.861
 23
-0.508
 74
2
 41
0.5
 41
0.0
 75
0
 11
6537990.43
 21
5571024.98
 12
-0.508
 22
-0.861
 13
0.861
 23
-0.508
 74
2
 41
0.5
 41
0.0
 75
0
  0
MLINE
  5
3A8
 100
AcDbEntity
  8
218-Granica użytku po granicy działki
  6
218a-1000
 62
3
 370
13
 100
AcDbMline
  2
218a-1000
 340
71
 40
1.0
 70
1
 71
1
 72
2
 73
1
 10
6537990.43
 20
5571024.98
 210
0.0
 220
0.0
 230
1.0
 11
6537990.43
 21
5571024.98
 12
-0.244
 22
-0.97
 13
0.97
 23
-0.244
 74
2
 41
0.5
 41
0.0
 75
0
 11
6537987.54
 21
5571013.47
 12
-0.244
 22
-0.97
 13
0.97
 23
-0.244
 74
2
 41
0.5
 41
0.0
 75
0
  0
MLINE
  5
3A9
 100
AcDbEntity
  8
218-Granica użytku po granicy działki
  6
218a-1000
 62
3
 370
13
 100
AcDbMline
  2
218a-1000
 340
71
 40
1.0
 70
1
 71
1
 72
2
 73
1
 10
6537986.721
 20
5570993.04
 210
0.0
 220
0.0
 230
1.0
 11
6537986.721
 21
5570993.04
 12
-0.66
 22
0.752
 13
-0.752
 23
-0.66
 74
2
 41
0.5
 41
0.0
 75
0
 11
6537984.51
 21
5570995.56
 12
-0.66
 22
0.752
 13
-0.752
 23
-0.66
 74
2
 41
0.5
 41
0.0
 75
0
  0
MLINE
  5
3AA
 100
AcDbEntity
  8
218-Granica użytku po granicy działki
  6
218a-1000
 62
3
 370
13
 100
AcDbMline
  2
218a-1000
 340
71
 40
1.0
 70
1
 71
1
 72
2
 73
1
 10
6537984.51
 20
5570995.56
 210
0.0
 220
0.0
 230
1.0
 11
6537984.51
 21
5570995.56
 12
-0.305
 22
0.952
 13
-0.952
 23
-0.305
 74
2
 41
0.5
 41
0.0
 75
0
 11
6537981.43
 21
5571005.19
 12
-0.305
 22
0.952
 13
-0.952
 23
-0.305
 74
2
 41
0.5
 41
0.0
 75
0
  0
MLINE
  5
3AB
 100
AcDbEntity
  8
218-Granica użytku po granicy działki
  6
218a-1000
 62
3
 370
13
 100
AcDbMline
  2
218a-1000
 340
71
 40
1.0
 70
1
 71
1
 72
2
 73
1
 10
6537981.43
 20
5571005.19
 210
0.0
 220
0.0
 230
1.0
 11
6537981.43
 21
5571005.19
 12
-0.018
 22
1.0
 13
-1.0
 23
-0.018
 74
2
 41
0.5
 41
0.0
 75
0
 11
6537981.33
 21
5571010.87
 12
-0.018
 22
1.0
 13
-1.0
 23
-0.018
 74
2
 41
0.5
 41
0.0
 75
0
  0
MLINE
  5
3AC
 100
AcDbEntity
  8
218-Granica użytku po granicy działki
  6
218a-1000
 62
3
 370
13
 100
AcDbMline
  2
218a-1000
 340
71
 40
1.0
 70
1
 71
1
 72
2
 73
1
 10
6537981.33
 20
5571010.87
 210
0.0
 220
0.0
 230
1.0
 11
6537981.33
 21
5571010.87
 12
0.167
 22
0.986
 13
-0.986
 23
0.167
 74
2
 41
0.5
 41
0.0
 75
0
 11
6537982.01
 21
5571014.89
 12
0.167
 22
0.986
 13
-0.986
 23
0.167
 74
2
 41
0.5
 41
0.0
 75
0
  0
TEXT
  5
3AD
 100
AcDbEntity
  8
210-Oznaczenie użytku
  6
CONTINUOUS
 62
3
 370
18
 100
AcDbText
 10
6537954.35
 20
5571007.55
 40
1.8
  1
Bp
 50
0.0
 41
0.9
 51
15.0
 72
0
 100
AcDbText
 73
0
  0
TEXT
  5
3AE
 100
AcDbEntity
  8
210-Oznaczenie użytku
  6
CONTINUOUS
 62
3
 370
18
 100
AcDbText
 10
6537934.28
 20
5571006.0
 40
1.8
  1
dr
 50
0.0
 41
0.9
 51
15.0
 72
0
 100
AcDbText
 73
0
  0
TEXT
  5
3AF
 100
AcDbEntity
  8
312-Numer ewidencyjny budynku-Atr124
 62
7
 100
AcDbText
 10
6537950.74
 20
5571031.08
 11
6537950.74
 21
5571031.08
 40
1.8
  1
i
 50
0.0
 41
0.9
 51
15.0
 72
1
 100
AcDbText
 73
0
  0
TEXT
  5
3B0
 100
AcDbEntity
  8
312-Numer ewidencyjny budynku-Atr124
 62
7
 100
AcDbText
 10
6537970.17
 20
5571012.63
 11
6537970.17
 21
5571012.63
 40
1.8
  1
mj
 50
0.0
 41
0.9
 51
15.0
 72
1
 100
AcDbText
 73
0
  0
POLYLINE
  5
3B1
 100
AcDbEntity
  8
312-Budynek (powierzchnia)
  6
CONTINUOUS
 62
7
 370
35
 100
AcDb2dPolyline
 66
1
 10
0
 20
0
 70
128
  0
VERTEX
  5
3B2
 100
AcDbEntity
  8
0
 100
AcDbVertex
 100
AcDb2dVertex
 10
6537963.3
 20
5571011.27
 42
0.0
 70
0
  0
VERTEX
  5
3B3
 100
AcDbEntity
  8
0
 100
AcDbVertex
 100
AcDb2dVertex
 10
6537964.0
 20
5571015.9
 42
0.0
 70
0
  0
SEQEND
  5
3B4
 100
AcDbEntity
  8
0
  0
POLYLINE
  5
3B5
 100
AcDbEntity
  8
312-Budynek (powierzchnia)
  6
CONTINUOUS
 62
7
 370
35
 100
AcDb2dPolyline
 66
1
 10
0
 20
0
 70
128
  0
VERTEX
  5
3B6
 100
AcDbEntity
  8
0
 100
AcDbVertex
 100
AcDb2dVertex
 10
6537964.0
 20
5571015.9
 42
0.0
 70
0
  0
VERTEX
  5
3B7
 100
AcDbEntity
  8
0
 100
AcDbVertex
 100
AcDb2dVertex
 10
6537977.03
 20
5571013.88
 42
0.0
 70
0
  0
SEQEND
  5
3B8
 100
AcDbEntity
  8
0
  0
POLYLINE
  5
3B9
 100
AcDbEntity
  8
312-Budynek (powierzchnia)
  6
CONTINUOUS
 62
7
 370
35
 100
AcDb2dPolyline
 66
1
 10
0
 20
0
 70
128
  0
VERTEX
  5
3BA
 100
AcDbEntity
  8
0
 100
AcDbVertex
 100
AcDb2dVertex
 10
6537977.03
 20
5571013.88
 42
0.0
 70
0
  0
VERTEX
  5
3BB
 100
AcDbEntity
  8
0
 100
AcDbVertex
 100
AcDb2dVertex
 10
6537976.41
 20
5571009.36
 42
0.0
 70
0
  0
SEQEND
  5
3BC
 100
AcDbEntity
  8
0
  0
POLYLINE
  5
3BD
 100
AcDbEntity
  8
312-Budynek (powierzchnia)
  6
CONTINUOUS
 62
7
 370
35
 100
AcDb2dPolyline
 66
1
 10
0
 20
0
 70
128
  0
VERTEX
  5
3BE
 100
AcDbEntity
  8
0
 100
AcDbVertex
 100
AcDb2dVertex
 10
6537976.41
 20
5571009.36
 42
0.0
 70
0
  0
VERTEX
  5
3BF
 100
AcDbEntity
  8
0
 100
AcDbVertex
 100
AcDb2dVertex
 10
6537963.3
 20
5571011.27
 42
0.0
 70
0
  0
SEQEND
  5
3C0
 100
AcDbEntity
  8
0
  0
TEXT
  5
3C1
 100
AcDbEntity
  8
238-Punkt adresowy budynku
  6
CONTINUOUS
 62
7
 370
18
 100
AcDbText
 10
6537976.47
 20
5571011.6
 11
6537976.47
 21
5571011.6
 40
1.8
  1
4
 50
82.19
 41
0.9
 51
15.0
 72
1
 100
AcDbText
 73
0
  0
TEXT
  5
3C2
 100
AcDbEntity
  8
238-Punkt adresowy budynku
  6
CONTINUOUS
 62
7
 370
18
 100
AcDbText
 10
6537972.78
 20
5571024.48
 11
6537972.78
 21
5571024.48
 40
1.8
  1
7
 50
87.619
 41
0.9
 51
15.0
 72
1
 100
AcDbText
 73
0
  0
INSERT
  5
3C3
 100
AcDbEntity
  8
510-Podpora jednosłupowa symb.-SEPOW
  6
CONTINUOUS
 62
7
 370
13
 100
AcDbBlockReference
 66
0
  2
510
 10
6537925.73
 20
5571058.6
 50
0.0
 41
1.0
 42
1.0
  0
INSERT
  5
3C4
 100
AcDbEntity
  8
latarnia na słupie lub maszcie (punkt)
  6
CONTINUOUS
 62
7
 370
18
 100
AcDbBlockReference
 66
0
  2
SM011
 10
6537925.73
 20
5571058.6
 50
0.0
 41
1.0
 42
1.0
  0
TEXT
  5
3C5
 100
AcDbEntity
  8
właz okrągły - siec kanalizacyjna (punkt)-Atr17
 62
7
 100
AcDbText
 10
6537928.18
 20
5571070.63
 11
6537928.18
 21
5571070.63
 40
1.5
  1
k
 50
0.0
 41
0.9
 51
15.0
 72
0
 100
AcDbText
 73
1
  0
INSERT
  5
3C6
 100
AcDbEntity
  8
właz okrągły - siec kanalizacyjna (punkt)
  6
CONTINUOUS
 62
7
 370
13
 100
AcDbBlockReference
 66
0
  2
US22
 10
6537929.26
 20
5571070.66
 50
0.0
 41
1.0
 42
1.0
  0
INSERT
  5
3C7
 100
AcDbEntity
  8
510-Podpora jednosłupowa symb.-SEPOW
  6
CONTINUOUS
 62
7
 370
13
 100
AcDbBlockReference
 66
0
  2
510
 10
6537937.59
 20
5571068.65
 50
0.0
 41
1.0
 42
1.0
  0
INSERT
  5
3C8
 100
AcDbEntity
  8
516-Kierunek linii eN-SEPOW
  6
CONTINUOUS
 62
7
 370
13
 100
AcDbBlockReference
 66
0
  2
516
 10
6537937.59
 20
5571068.65
 50
246.194
 41
1.0
 42
1.0
  0
INSERT
  5
3C9
 100
AcDbEntity
  8
510-Podpora jednosłupowa symb.-SEPOW
  6
CONTINUOUS
 62
7
 370
13
 100
AcDbBlockReference
 66
0
  2
510
 10
6537946.16
 20
5571011.12
 50
0.0
 41
1.0
 42
1.0
  0
INSERT
  5
3CA
 100
AcDbEntity
  8
516-Kierunek linii eN-SEPOW
  6
CONTINUOUS
 62
7
 370
13
 100
AcDbBlockReference
 66
0
  2
516
 10
6537952.97
 20
5571019.56
 50
158.873
 41
1.0
 42
1.0
  0
INSERT
  5
3CB
 100
AcDbEntity
  8
510-Podpora jednosłupowa symb.-SEPOW
  6
CONTINUOUS
 62
7
 370
13
 100
AcDbBlockReference
 66
0
  2
510
 10
6537952.97
 20
5571019.56
 50
0.0
 41
1.0
 42
1.0
  0
INSERT
  5
3CC
 100
AcDbEntity
  8
studnia (punkt)
  6
CONTINUOUS
 62
7
 370
18
 100
AcDbBlockReference
 66
0
  2
US13
 10
6537953.98
 20
5571024.02
 50
0.0
 41
1.0
 42
1.0
  0
TEXT
  5
3CD
 100
AcDbEntity
  8
szafa kablowa (punkt)-Atr17
 62
7
 100
AcDbText
 10
6537957.23
 20
5571014.1
 11
6537957.23
 21
5571014.1
 40
1.5
  1
e
 50
0.0
 41
0.9
 51
15.0
 72
0
 100
AcDbText
 73
1
  0
INSERT
  5
3CE
 100
AcDbEntity
  8
szafa kablowa (punkt)
  6
CONTINUOUS
 62
7
 370
18
 100
AcDbBlockReference
 66
0
  2
US17
 10
6537956.03
 20
5571015.31
 50
9.413
 41
1.0
 42
1.0
  0
TEXT
  5
3CF
 100
AcDbEntity
  8
właz okrągły - siec kanalizacyjna (punkt)-Atr17
 62
7
 100
AcDbText
 10
6537960.56
 20
5571002.77
 11
6537960.56
 21
5571002.77
 40
1.5
  1
k
 50
0.0
 41
0.9
 51
15.0
 72
0
 100
AcDbText
 73
1
  0
INSERT
  5
3D0
 100
AcDbEntity
  8
właz okrągły - siec kanalizacyjna (punkt)
  6
CONTINUOUS
 62
7
 370
13
 100
AcDbBlockReference
 66
0
  2
US22
 10
6537959.65
 20
5571001.85
 50
0.0
 41
1.0
 42
1.0
  0
INSERT
  5
3D1
 100
AcDbEntity
  8
studnia (punkt)
  6
CONTINUOUS
 62
7
 370
18
 100
AcDbBlockReference
 66
0
  2
US13
 10
6537959.84
 20
5571013.24
 50
0.0
 41
1.0
 42
1.0
  0
TEXT
  5
3D2
 100
AcDbEntity
  8
właz okrągły - siec kanalizacyjna (punkt)-Atr17
 62
7
 100
AcDbText
 10
6537965.93
 20
5571029.95
 11
6537965.93
 21
5571029.95
 40
1.5
  1
k
 50
0.0
 41
0.9
 51
15.0
 72
0
 100
AcDbText
 73
1
  0
INSERT
  5
3D3
 100
AcDbEntity
  8
właz okrągły - siec kanalizacyjna (punkt)
  6
CONTINUOUS
 62
7
 370
13
 100
AcDbBlockReference
 66
0
  2
US22
 10
6537967.84
 20
5571029.93
 50
0.0
 41
1.0
 42
1.0
  0
INSERT
  5
3D4
 100
AcDbEntity
  8
drzewo iglaste (punkt)
  6
CONTINUOUS
 62
94
 370
13
 100
AcDbBlockReference
 66
0
  2
OP011
 10
6537975.64
 20
5571022.13
 50
180.0
 41
1.0
 42
1.0
  0
INSERT
  5
3D5
 100
AcDbEntity
  8
drzewo iglaste (punkt)
  6
CONTINUOUS
 62
94
 370
13
 100
AcDbBlockReference
 66
0
  2
OP011
 10
6537975.89
 20
5571025.33
 50
180.0
 41
1.0
 42
1.0
  0
INSERT
  5
3D6
 100
AcDbEntity
  8
drzewo iglaste (punkt)
  6
CONTINUOUS
 62
94
 370
13
 100
AcDbBlockReference
 66
0
  2
OP011
 10
6537977.07
 20
5571022.55
 50
180.0
 41
1.0
 42
1.0
  0
INSERT
  5
3D7
 100
AcDbEntity
  8
drzewo iglaste (punkt)
  6
CONTINUOUS
 62
94
 370
13
 100
AcDbBlockReference
 66
0
  2
OP011
 10
6537977.15
 20
5571023.98
 50
180.0
 41
1.0
 42
1.0
  0
INSERT
  5
3D8
 100
AcDbEntity
  8
drzewo liściaste (punkt)
  6
CONTINUOUS
 62
94
 370
13
 100
AcDbBlockReference
 66
0
  2
OP021
 10
6537978.3
 20
5571000.83
 50
0.197
 41
1.0
 42
1.0
  0
TEXT
  5
3D9
 100
AcDbEntity
  8
zasuwa - siec wodociągowa (punkt)-Atr17
 62
7
 100
AcDbText
 10
6537980.53
 20
5571019.24
 11
6537980.53
 21
5571019.24
 40
1.5
  1
w
 50
0.0
 41
0.9
 51
15.0
 72
0
 100
AcDbText
 73
1
  0
INSERT
  5
3DA
 100
AcDbEntity
  8
zasuwa - siec wodociągowa (punkt)
  6
CONTINUOUS
 62
7
 370
13
 100
AcDbBlockReference
 66
0
  2
US25
 10
6537980.17
 20
5571020.63
 50
52.304
 41
1.0
 42
1.0
  0
TEXT
  5
3DB
 100
AcDbEntity
  8
właz okrągły - siec wodociągowa (punkt)-Atr17
 62
7
 100
AcDbText
 10
6537979.97
 20
5571023.2
 11
6537979.97
 21
5571023.2
 40
1.5
  1
w
 50
0.0
 41
0.9
 51
15.0
 72
0
 100
AcDbText
 73
1
  0
INSERT
  5
3DC
 100
AcDbEntity
  8
właz okrągły - siec wodociągowa (punkt)
  6
CONTINUOUS
 62
7
 370
13
 100
AcDbBlockReference
 66
0
  2
US22
 10
6537981.18
 20
5571022.54
 50
0.0
 41
1.0
 42
1.0
  0
TEXT
  5
3DD
 100
AcDbEntity
  8
właz okrągły - siec kanalizacyjna (punkt)-Atr17
 62
7
 100
AcDbText
 10
6537982.39
 20
5571021.77
 11
6537982.39
 21
5571021.77
 40
1.5
  1
k
 50
0.0
 41
0.9
 51
15.0
 72
0
 100
AcDbText
 73
1
  0
INSERT
  5
3DE
 100
AcDbEntity
  8
właz okrągły - siec kanalizacyjna (punkt)
  6
CONTINUOUS
 62
7
 370
13
 100
AcDbBlockReference
 66
0
  2
US22
 10
6537981.53
 20
5571021.7
 50
0.0
 41
1.0
 42
1.0
  0
INSERT
  5
3DF
 100
AcDbEntity
  8
510-Podpora jednosłupowa symb.-SEPOW
  6
CONTINUOUS
 62
7
 370
13
 100
AcDbBlockReference
 66
0
  2
510
 10
6537989.21
 20
5571013.98
 50
0.0
 41
1.0
 42
1.0
  0
INSERT
  5
3E0
 100
AcDbEntity
  8
latarnia na słupie lub maszcie (punkt)
  6
CONTINUOUS
 62
7
 370
18
 100
AcDbBlockReference
 66
0
  2
SM011
 10
6537989.21
 20
5571013.98
 50
311.369
 41
1.0
 42
1.0
  0
INSERT
  5
3E1
 100
AcDbEntity
  8
drzewo liściaste (punkt)
  6
CONTINUOUS
 62
94
 370
13
 100
AcDbBlockReference
 66
0
  2
OP021
 10
6537995.02
 20
5571011.98
 50
0.0
 41
1.0
 42
1.0
  0
INSERT
  5
3E2
 100
AcDbEntity
  8
drzewo iglaste (punkt)
  6
CONTINUOUS
 62
94
 370
13
 100
AcDbBlockReference
 66
0
  2
OP011
 10
6538009.7
 20
5571067.78
 50
0.0
 41
1.0
 42
1.0
  0
INSERT
  5
3E3
 100
AcDbEntity
  8
drzewo iglaste (punkt)
  6
CONTINUOUS
 62
94
 370
13
 100
AcDbBlockReference
 66
0
  2
OP011
 10
6538012.51
 20
5571072.39
 50
0.0
 41
1.0
 42
1.0
  0
INSERT
  5
3E4
 100
AcDbEntity
  8
drzewo iglaste (punkt)
  6
CONTINUOUS
 62
94
 370
13
 100
AcDbBlockReference
 66
0
  2
OP011
 10
6538015.33
 20
5571077.0
 50
0.0
 41
1.0
 42
1.0
  0
INSERT
  5
3E5
 100
AcDbEntity
  8
drzewo iglaste (punkt)
  6
CONTINUOUS
 62
94
 370
13
 100
AcDbBlockReference
 66
0
  2
OP011
 10
6538018.11
 20
5571081.57
 50
0.0
 41
1.0
 42
1.0
  0
POLYLINE
  5
3E6
 100
AcDbEntity
  8
ogrodzenie trwałe (linia)
  6
902-1000
 62
7
 370
25
 100
AcDb2dPolyline
 66
1
 10
0
 20
0
 70
128
  0
VERTEX
  5
3E7
 100
AcDbEntity
  8
0
 100
AcDbVertex
 100
AcDb2dVertex
 10
6537979.33
 20
5571026.85
 42
0.0
 70
0
  0
VERTEX
  5
3E8
 100
AcDbEntity
  8
0
 100
AcDbVertex
 100
AcDb2dVertex
 10
6537978.9
 20
5571021.27
 42
0.0
 70
0
  0
SEQEND
  5
3E9
 100
AcDbEntity
  8
0
  0
MLINE
  5
3EA
 100
AcDbEntity
  8
450-Ściana oporowa symb. osiowy
  6
450-1000
 62
7
 370
13
 100
AcDbMline
  2
450-1000
 340
3C
 40
1.0
 70
1
 71
1
 72
2
 73
2
 10
6537985.94
 20
5571024.56
 210
0.0
 220
0.0
 230
1.0
 11
6537985.94
 21
5571024.56
 12
0.325
 22
0.946
 13
-0.946
 23
0.325
 74
2
 41
0.35
 41
0.0
 75
0
 74
2
 41
-0.35
 41
0.0
 75
0
 11
6537987.4
 21
5571028.81
 12
0.325
 22
0.946
 13
-0.946
 23
0.325
 74
2
 41
0.35
 41
0.0
 75
0
 74
2
 41
-0.35
 41
0.0
 75
0
  0
POLYLINE
  5
3EB
 100
AcDbEntity
  8
przewód telekomunikacyjny (linia)
  6
CONTINUOUS
 62
30
 370
18
 100
AcDb2dPolyline
 66
1
 10
0
 20
0
 70
128
  0
VERTEX
  5
3EC
 100
AcDbEntity
  8
0
 100
AcDbVertex
 100
AcDb2dVertex
 10
6537976.64
 20
5571009.99
 42
0.0
 70
0
  0
VERTEX
  5
3ED
 100
AcDbEntity
  8
0
 100
AcDbVertex
 100
AcDb2dVertex
 10
6537977.71
 20
5571009.84
 42
0.0
 70
0
  0
VERTEX
  5
3EE
 100
AcDbEntity
  8
0
 100
AcDbVertex
 100
AcDb2dVertex
 10
6537981.57
 20
5571003.66
 42
0.0
 70
0
  0
VERTEX
  5
3EF
 100
AcDbEntity
  8
0
 100
AcDbVertex
 100
AcDb2dVertex
 10
6537989.916
 20
5570993.04
 42
0.0
 70
0
  0
SEQEND
  5
3F0
 100
AcDbEntity
  8
0
  0
POLYLINE
  5
3F1
 100
AcDbEntity
  8
ogrodzenie trwałe (linia)
  6
902-1000
 62
7
 370
25
 100
AcDb2dPolyline
 66
1
 10
0
 20
0
 70
128
  0
VERTEX
  5
3F2
 100
AcDbEntity
  8
0
 100
AcDbVertex
 100
AcDb2dVertex
 10
6537981.653
 20
5571084.31
 42
0.0
 70
0
  0
VERTEX
  5
3F3
 100
AcDbEntity
  8
0
 100
AcDbVertex
 100
AcDb2dVertex
 10
6537976.1
 20
5571077.93
 42
0.0
 70
0
  0
SEQEND
  5
3F4
 100
AcDbEntity
  8
0
  0
TEXT
  5
3F5
 100
AcDbEntity
  8
przewód wodociągowy (linia)-Atr1
 62
5
 100
AcDbText
 10
6537998.49
 20
5571070.12
 11
6537998.49
 21
5571070.12
 40
1.5
  1
wD100
 50
58.709
 41
0.9
 51
15.0
 72
0
 100
AcDbText
 73
2
  0
POLYLINE
  5
3F6
 100
AcDbEntity
  8
przewód wodociągowy (linia)
  6
CONTINUOUS
 62
5
 370
18
 100
AcDb2dPolyline
 66
1
 10
0
 20
0
 70
128
  0
VERTEX
  5
3F7
 100
AcDbEntity
  8
0
 100
AcDbVertex
 100
AcDb2dVertex
 10
6537978.43
 20
5571015.35
 42
0.0
 70
0
  0
VERTEX
  5
3F8
 100
AcDbEntity
  8
0
 100
AcDbVertex
 100
AcDb2dVertex
 10
6537972.93
 20
5571034.03
 42
0.0
 70
0
  0
VERTEX
  5
3F9
 100
AcDbEntity
  8
0
 100
AcDbVertex
 100
AcDb2dVertex
 10
6537973.55
 20
5571044.67
 42
0.0
 70
0
  0
VERTEX
  5
3FA
 100
AcDbEntity
  8
0
 100
AcDbVertex
 100
AcDb2dVertex
 10
6537984.04
 20
5571048.36
 42
0.0
 70
0
  0
VERTEX
  5
3FB
 100
AcDbEntity
  8
0
 100
AcDbVertex
 100
AcDb2dVertex
 10
6537994.59
 20
5571063.7
 42
0.0
 70
0
  0
VERTEX
  5
3FC
 100
AcDbEntity
  8
0
 100
AcDbVertex
 100
AcDb2dVertex
 10
6538005.05
 20
5571080.91
 42
0.0
 70
0
  0
VERTEX
  5
3FD
 100
AcDbEntity
  8
0
 100
AcDbVertex
 100
AcDb2dVertex
 10
6538007.231
 20
5571084.31
 42
0.0
 70
0
  0
SEQEND
  5
3FE
 100
AcDbEntity
  8
0
  0
TEXT
  5
3FF
 100
AcDbEntity
  8
przewód wodociągowy (linia)-Atr1
 62
5
 100
AcDbText
 10
6537978.65
 20
5571018.58
 11
6537978.65
 21
5571018.58
 40
1.5
  1
wD
 50
52.481
 41
0.9
 51
15.0
 72
0
 100
AcDbText
 73
1
  0
POLYLINE
  5
400
 100
AcDbEntity
  8
przewód wodociągowy (linia)
  6
CONTINUOUS
 62
5
 370
18
 100
AcDb2dPolyline
 66
1
 10
0
 20
0
 70
128
  0
VERTEX
  5
401
 100
AcDbEntity
  8
0
 100
AcDbVertex
 100
AcDb2dVertex
 10
6537976.65
 20
5571015.89
 42
0.0
 70
0
  0
VERTEX
  5
402
 100
AcDbEntity
  8
0
 100
AcDbVertex
 100
AcDb2dVertex
 10
6537980.17
 20
5571020.63
 42
0.0
 70
0
  0
SEQEND
  5
403
 100
AcDbEntity
  8
0
  0
TEXT
  5
404
 100
AcDbEntity
  8
przewód wodociągowy (linia)-Atr1
 62
5
 100
AcDbText
 10
6537976.16
 20
5571013.88
 11
6537976.16
 21
5571013.88
 40
1.5
  1
wD
 50
76.159
 41
0.9
 51
15.0
 72
0
 100
AcDbText
 73
1
  0
POLYLINE
  5
405
 100
AcDbEntity
  8
przewód wodociągowy (linia)
  6
CONTINUOUS
 62
5
 370
18
 100
AcDb2dPolyline
 66
1
 10
0
 20
0
 70
128
  0
VERTEX
  5
406
 100
AcDbEntity
  8
0
 100
AcDbVertex
 100
AcDb2dVertex
 10
6537979.32
 20
5571013.58
 42
0.0
 70
0
  0
VERTEX
  5
407
 100
AcDbEntity
  8
0
 100
AcDbVertex
 100
AcDb2dVertex
 10
6537978.43
 20
5571015.35
 42
0.0
 70
0
  0
VERTEX
  5
408
 100
AcDbEntity
  8
0
 100
AcDbVertex
 100
AcDb2dVertex
 10
6537976.65
 20
5571015.89
 42
0.0
 70
0
  0
VERTEX
  5
409
 100
AcDbEntity
  8
0
 100
AcDbVertex
 100
AcDb2dVertex
 10
6537976.09
 20
5571013.56
 42
0.0
 70
0
  0
SEQEND
  5
40A
 100
AcDbEntity
  8
0
  0
TEXT
  5
40B
 100
AcDbEntity
  8
przewód wodociągowy (linia)-Atr1
 62
5
 100
AcDbText
 10
6537984.83
 20
5570999.31
 11
6537984.83
 21
5570999.31
 40
1.5
  1
wD32
 50
306.385
 41
0.9
 51
15.0
 72
0
 100
AcDbText
 73
1
  0
POLYLINE
  5
40C
 100
AcDbEntity
  8
przewód wodociągowy (linia)
  6
CONTINUOUS
 62
5
 370
18
 100
AcDb2dPolyline
 66
1
 10
0
 20
0
 70
128
  0
VERTEX
  5
40D
 100
AcDbEntity
  8
0
 100
AcDbVertex
 100
AcDb2dVertex
 10
6537989.6
 20
5570993.04
 42
0.0
 70
0
  0
VERTEX
  5
40E
 100
AcDbEntity
  8
0
 100
AcDbVertex
 100
AcDb2dVertex
 10
6537989.08
 20
5570993.67
 42
0.0
 70
0
  0
VERTEX
  5
40F
 100
AcDbEntity
  8
0
 100
AcDbVertex
 100
AcDb2dVertex
 10
6537981.57
 20
5571003.66
 42
0.0
 70
0
  0
VERTEX
  5
410
 100
AcDbEntity
  8
0
 100
AcDbVertex
 100
AcDb2dVertex
 10
6537979.32
 20
5571013.58
 42
0.0
 70
0
  0
VERTEX
  5
411
 100
AcDbEntity
  8
0
 100
AcDbVertex
 100
AcDb2dVertex
 10
6537995.35
 20
5570994.85
 42
0.0
 70
0
  0
VERTEX
  5
412
 100
AcDbEntity
  8
0
 100
AcDbVertex
 100
AcDb2dVertex
 10
6537996.86
 20
5570993.04
 42
0.0
 70
0
  0
SEQEND
  5
413
 100
AcDbEntity
  8
0
  0
POLYLINE
  5
414
 100
AcDbEntity
  8
przewód elektroenergetyczny (linia)
  6
CONTINUOUS
 62
1
 370
18
 100
AcDb2dPolyline
 66
1
 10
0
 20
0
 70
128
  0
VERTEX
  5
415
 100
AcDbEntity
  8
0
 100
AcDbVertex
 100
AcDb2dVertex
 10
6537952.97
 20
5571019.56
 42
0.0
 70
0
  0
VERTEX
  5
416
 100
AcDbEntity
  8
0
 100
AcDbVertex
 100
AcDb2dVertex
 10
6537956.03
 20
5571015.31
 42
0.0
 70
0
  0
VERTEX
  5
417
 100
AcDbEntity
  8
0
 100
AcDbVertex
 100
AcDb2dVertex
 10
6537958.923
 20
5570993.04
 42
0.0
 70
0
  0
SEQEND
  5
418
 100
AcDbEntity
  8
0
  0
POLYLINE
  5
419
 100
AcDbEntity
  8
ogrodzenie trwałe (linia)
  6
902-1000
 62
7
 370
25
 100
AcDb2dPolyline
 66
1
 10
0
 20
0
 70
128
  0
VERTEX
  5
41A
 100
AcDbEntity
  8
0
 100
AcDbVertex
 100
AcDb2dVertex
 10
6537954.64
 20
5571019.37
 42
0.0
 70
0
  0
VERTEX
  5
41B
 100
AcDbEntity
  8
0
 100
AcDbVertex
 100
AcDb2dVertex
 10
6537950.93
 20
5571025.39
 42
0.0
 70
0
  0
SEQEND
  5
41C
 100
AcDbEntity
  8
0
  0
POLYLINE
  5
41D
 100
AcDbEntity
  8
ogrodzenie trwałe (linia)
  6
902-1000
 62
7
 370
25
 100
AcDb2dPolyline
 66
1
 10
0
 20
0
 70
128
  0
VERTEX
  5
41E
 100
AcDbEntity
  8
0
 100
AcDbVertex
 100
AcDb2dVertex
 10
6537967.43
 20
5571019.35
 42
0.0
 70
0
  0
VERTEX
  5
41F
 100
AcDbEntity
  8
0
 100
AcDbVertex
 100
AcDb2dVertex
 10
6537978.9
 20
5571021.27
 42
0.0
 70
0
  0
SEQEND
  5
420
 100
AcDbEntity
  8
0
  0
POLYLINE
  5
421
 100
AcDbEntity
  8
ogrodzenie trwałe (linia)
  6
902-1000
 62
7
 370
25
 100
AcDb2dPolyline
 66
1
 10
0
 20
0
 70
128
  0
VERTEX
  5
422
 100
AcDbEntity
  8
0
 100
AcDbVertex
 100
AcDb2dVertex
 10
6537964.07
 20
5571015.42
 42
0.0
 70
0
  0
VERTEX
  5
423
 100
AcDbEntity
  8
0
 100
AcDbVertex
 100
AcDb2dVertex
 10
6537958.75
 20
5571016.29
 42
0.0
 70
0
  0
VERTEX
  5
424
 100
AcDbEntity
  8
0
 100
AcDbVertex
 100
AcDb2dVertex
 10
6537954.74
 20
5571015.57
 42
0.0
 70
0
  0
VERTEX
  5
425
 100
AcDbEntity
  8
0
 100
AcDbVertex
 100
AcDb2dVertex
 10
6537946.22
 20
5571011.53
 42
0.0
 70
0
  0
VERTEX
  5
426
 100
AcDbEntity
  8
0
 100
AcDbVertex
 100
AcDb2dVertex
 10
6537926.78
 20
5570999.96
 42
0.0
 70
0
  0
VERTEX
  5
427
 100
AcDbEntity
  8
0
 100
AcDbVertex
 100
AcDb2dVertex
 10
6537924.07
 20
5570998.312
 42
0.0
 70
0
  0
SEQEND
  5
428
 100
AcDbEntity
  8
0
  0
TEXT
  5
429
 100
AcDbEntity
  8
przewód kanalizacyjny (linia)-Atr1
 62
34
 100
AcDbText
 10
6538003.9
 20
5571020.34
 11
6538003.9
 21
5571020.34
 40
1.5
  1
k500
 50
338.498
 41
0.9
 51
15.0
 72
0
 100
AcDbText
 73
1
  0
POLYLINE
  5
42A
 100
AcDbEntity
  8
przewód kanalizacyjny (linia)
  6
CONTINUOUS
 62
34
 370
18
 100
AcDb2dPolyline
 66
1
 10
0
 20
0
 70
128
  0
VERTEX
  5
42B
 100
AcDbEntity
  8
0
 100
AcDbVertex
 100
AcDb2dVertex
 10
6538012.15
 20
5571017.26
 42
0.0
 70
0
  0
VERTEX
  5
42C
 100
AcDbEntity
  8
0
 100
AcDbVertex
 100
AcDb2dVertex
 10
6537998.47
 20
5571022.37
 42
0.0
 70
0
  0
SEQEND
  5
42D
 100
AcDbEntity
  8
0
  0
TEXT
  5
42E
 100
AcDbEntity
  8
przewód kanalizacyjny (linia)-Atr1
 62
34
 100
AcDbText
 10
6537986.99
 20
5571026.41
 11
6537986.99
 21
5571026.41
 40
1.5
  1
k3000
 50
340.292
 41
0.9
 51
15.0
 72
0
 100
AcDbText
 73
1
  0
POLYLINE
  5
42F
 100
AcDbEntity
  8
przewód kanalizacyjny (linia)
  6
CONTINUOUS
 62
34
 370
18
 100
AcDb2dPolyline
 66
1
 10
0
 20
0
 70
128
  0
VERTEX
  5
430
 100
AcDbEntity
  8
0
 100
AcDbVertex
 100
AcDb2dVertex
 10
6537986.5
 20
5571026.57
 42
0.0
 70
0
  0
VERTEX
  5
431
 100
AcDbEntity
  8
0
 100
AcDbVertex
 100
AcDb2dVertex
 10
6537990.91
 20
5571025.08
 42
0.0
 70
0
  0
SEQEND
  5
432
 100
AcDbEntity
  8
0
  0
POLYLINE
  5
433
 100
AcDbEntity
  8
ogrodzenie trwałe (linia)
  6
902-1000
 62
7
 370
25
 100
AcDb2dPolyline
 66
1
 10
0
 20
0
 70
128
  0
VERTEX
  5
434
 100
AcDbEntity
  8
0
 100
AcDbVertex
 100
AcDb2dVertex
 10
6537959.008
 20
5571084.31
 42
0.0
 70
0
  0
VERTEX
  5
435
 100
AcDbEntity
  8
0
 100
AcDbVertex
 100
AcDb2dVertex
 10
6537957.13
 20
5571080.44
 42
0.0
 70
0
  0
SEQEND
  5
436
 100
AcDbEntity
  8
0
  0
TEXT
  5
437
 100
AcDbEntity
  8
przewód elektroenergetyczny (linia)-Atr1
 62
1
 100
AcDbText
 10
6537928.78
 20
5571066.76
 40
1.5
  1
eD
 50
64.885
 41
0.9
 51
15.0
 72
0
 100
AcDbText
 73
0
  0
POLYLINE
  5
438
 100
AcDbEntity
  8
przewód elektroenergetyczny (linia)
  6
CONTINUOUS
 62
1
 370
18
 100
AcDb2dPolyline
 66
1
 10
0
 20
0
 70
128
  0
VERTEX
  5
439
 100
AcDbEntity
  8
0
 100
AcDbVertex
 100
AcDb2dVertex
 10
6537937.024
 20
5571084.31
 42
0.0
 70
0
  0
VERTEX
  5
43A
 100
AcDbEntity
  8
0
 100
AcDbVertex
 100
AcDb2dVertex
 10
6537925.07
 20
5571058.85
 42
0.0
 70
0
  0
VERTEX
  5
43B
 100
AcDbEntity
  8
0
 100
AcDbVertex
 100
AcDb2dVertex
 10
6537925.73
 20
5571058.6
 42
0.0
 70
0
  0
SEQEND
  5
43C
 100
AcDbEntity
  8
0
  0
POLYLINE
  5
43D
 100
AcDbEntity
  8
przewód elektroenergetyczny (linia)
  6
CONTINUOUS
 62
1
 370
18
 100
AcDb2dPolyline
 66
1
 10
0
 20
0
 70
128
  0
VERTEX
  5
43E
 100
AcDbEntity
  8
0
 100
AcDbVertex
 100
AcDb2dVertex
 10
6537925.11
 20
5571058.93
 42
0.0
 70
0
  0
VERTEX
  5
43F
 100
AcDbEntity
  8
0
 100
AcDbVertex
 100
AcDb2dVertex
 10
6537924.07
 20
5571056.716
 42
0.0
 70
0
  0
SEQEND
  5
440
 100
AcDbEntity
  8
0
  0
POLYLINE
  5
441
 100
AcDbEntity
  8
ogrodzenie trwałe (linia)
  6
902-1000
 62
7
 370
25
 100
AcDb2dPolyline
 66
1
 10
0
 20
0
 70
128
  0
VERTEX
  5
442
 100
AcDbEntity
  8
0
 100
AcDbVertex
 100
AcDb2dVertex
 10
6537976.1
 20
5571077.93
 42
0.0
 70
0
  0
VERTEX
  5
443
 100
AcDbEntity
  8
0
 100
AcDbVertex
 100
AcDb2dVertex
 10
6537955.05
 20
5571076.34
 42
0.0
 70
0
  0
VERTEX
  5
444
 100
AcDbEntity
  8
0
 100
AcDbVertex
 100
AcDb2dVertex
 10
6537957.13
 20
5571080.44
 42
0.0
 70
0
  0
SEQEND
  5
445
 100
AcDbEntity
  8
0
  0
POLYLINE
  5
446
 100
AcDbEntity
  8
823-Szczyt skarpy nieumocninej
  6
823-1000
 62
7
 370
13
 100
AcDb2dPolyline
 66
1
 10
0
 20
0
 70
128
  0
VERTEX
  5
447
 100
AcDbEntity
  8
0
 100
AcDbVertex
 100
AcDb2dVertex
 10
6537937.75
 20
5571080.35
 42
0.0
 70
0
  0
VERTEX
  5
448
 100
AcDbEntity
  8
0
 100
AcDbVertex
 100
AcDb2dVertex
 10
6537925.28
 20
5571054.81
 42
0.0
 70
0
  0
SEQEND
  5
449
 100
AcDbEntity
  8
0
  0
POLYLINE
  5
44A
 100
AcDbEntity
  8
824-Podnóże skarpy nieumocninej
  6
823-1000
 62
7
 370
13
 100
AcDb2dPolyline
 66
1
 10
0
 20
0
 70
128
  0
VERTEX
  5
44B
 100
AcDbEntity
  8
0
 100
AcDbVertex
 100
AcDb2dVertex
 10
6537930.21
 20
5571052.93
 42
0.0
 70
0
  0
VERTEX
  5
44C
 100
AcDbEntity
  8
0
 100
AcDbVertex
 100
AcDb2dVertex
 10
6537942.78
 20
5571080.26
 42
0.0
 70
0
  0
SEQEND
  5
44D
 100
AcDbEntity
  8
0
  0
POLYLINE
  5
44E
 100
AcDbEntity
  8
824-Podnóże skarpy nieumocninej
  6
823-1000
 62
7
 370
13
 100
AcDb2dPolyline
 66
1
 10
0
 20
0
 70
128
  0
VERTEX
  5
44F
 100
AcDbEntity
  8
0
 100
AcDbVertex
 100
AcDb2dVertex
 10
6537925.28
 20
5571054.81
 42
0.0
 70
0
  0
VERTEX
  5
450
 100
AcDbEntity
  8
0
 100
AcDbVertex
 100
AcDb2dVertex
 10
6537930.21
 20
5571052.93
 42
0.0
 70
0
  0
SEQEND
  5
451
 100
AcDbEntity
  8
0
  0
LINE
  5
452
 100
AcDbEntity
  8
820-Skarpa nieumocniona
  6
CONTINUOUS
 62
7
 370
13
 100
AcDbLine
 10
6537937.09
 20
5571079.0
 11
6537941.26
 21
5571076.96
  0
LINE
  5
453
 100
AcDbEntity
  8
820-Skarpa nieumocniona
  6
CONTINUOUS
 62
7
 370
13
 100
AcDbLine
 10
6537935.78
 20
5571076.31
 11
6537937.89
 21
5571075.27
  0
LINE
  5
454
 100
AcDbEntity
  8
820-Skarpa nieumocniona
  6
CONTINUOUS
 62
7
 370
13
 100
AcDbLine
 10
6537934.46
 20
5571073.61
 11
6537938.76
 21
5571071.51
  0
LINE
  5
455
 100
AcDbEntity
  8
820-Skarpa nieumocniona
  6
CONTINUOUS
 62
7
 370
13
 100
AcDbLine
 10
6537933.14
 20
5571070.91
 11
6537935.32
 21
5571069.85
  0
LINE
  5
456
 100
AcDbEntity
  8
820-Skarpa nieumocniona
  6
CONTINUOUS
 62
7
 370
13
 100
AcDbLine
 10
6537931.83
 20
5571068.22
 11
6537936.25
 21
5571066.06
  0
LINE
  5
457
 100
AcDbEntity
  8
820-Skarpa nieumocniona
  6
CONTINUOUS
 62
7
 370
13
 100
AcDbLine
 10
6537930.51
 20
5571065.52
 11
6537932.75
 21
5571064.43
  0
LINE
  5
458
 100
AcDbEntity
  8
820-Skarpa nieumocniona
  6
CONTINUOUS
 62
7
 370
13
 100
AcDbLine
 10
6537929.19
 20
5571062.83
 11
6537933.74
 21
5571060.61
  0
LINE
  5
459
 100
AcDbEntity
  8
820-Skarpa nieumocniona
  6
CONTINUOUS
 62
7
 370
13
 100
AcDbLine
 10
6537927.88
 20
5571060.13
 11
6537930.18
 21
5571059.01
  0
LINE
  5
45A
 100
AcDbEntity
  8
820-Skarpa nieumocniona
  6
CONTINUOUS
 62
7
 370
13
 100
AcDbLine
 10
6537926.56
 20
5571057.44
 11
6537931.23
 21
5571055.15
  0
POLYLINE
  5
45B
 100
AcDbEntity
  8
jezdnia (powierzchnia)
  6
mz3.0_1.0
 62
7
 370
18
 100
AcDb2dPolyline
 66
1
 10
0
 20
0
 70
128
  0
VERTEX
  5
45C
 100
AcDbEntity
  8
0
 100
AcDbVertex
 100
AcDb2dVertex
 10
6537927.77
 20
5571079.96
 42
0.0
 70
0
  0
VERTEX
  5
45D
 100
AcDbEntity
  8
0
 100
AcDbVertex
 100
AcDb2dVertex
 10
6537924.99
 20
5571074.45
 42
0.0
 70
0
  0
SEQEND
  5
45E
 100
AcDbEntity
  8
0
  0
POLYLINE
  5
45F
 100
AcDbEntity
  8
ogrodzenie trwałe (linia)
  6
902-1000
 62
7
 370
25
 100
AcDb2dPolyline
 66
1
 10
0
 20
0
 70
128
  0
VERTEX
  5
460
 100
AcDbEntity
  8
0
 100
AcDbVertex
 100
AcDb2dVertex
 10
6537939.563
 20
5571084.31
 42
0.0
 70
0
  0
VERTEX
  5
461
 100
AcDbEntity
  8
0
 100
AcDbVertex
 100
AcDb2dVertex
 10
6537933.29
 20
5571071.37
 42
0.0
 70
0
  0
VERTEX
  5
462
 100
AcDbEntity
  8
0
 100
AcDbVertex
 100
AcDb2dVertex
 10
6537924.07
 20
5571051.379
 42
0.0
 70
0
  0
SEQEND
  5
463
 100
AcDbEntity
  8
0
  0
POLYLINE
  5
464
 100
AcDbEntity
  8
jezdnia (powierzchnia)
  6
mz3.0_1.0
 62
7
 370
18
 100
AcDb2dPolyline
 66
1
 10
0
 20
0
 70
128
  0
VERTEX
  5
465
 100
AcDbEntity
  8
0
 100
AcDbVertex
 100
AcDb2dVertex
 10
6537924.07
 20
5571072.209
 42
0.0
 70
0
  0
VERTEX
  5
466
 100
AcDbEntity
  8
0
 100
AcDbVertex
 100
AcDb2dVertex
 10
6537929.819
 20
5571084.31
 42
0.0
 70
0
  0
SEQEND
  5
467
 100
AcDbEntity
  8
0
  0
POLYLINE
  5
468
 100
AcDbEntity
  8
krawężnik (linia)
  6
CONTINUOUS
 62
7
 370
25
 100
AcDb2dPolyline
 66
1
 10
0
 20
0
 70
128
  0
VERTEX
  5
469
 100
AcDbEntity
  8
0
 100
AcDbVertex
 100
AcDb2dVertex
 10
6537924.07
 20
5571057.19
 42
0.0
 70
0
  0
VERTEX
  5
46A
 100
AcDbEntity
  8
0
 100
AcDbVertex
 100
AcDb2dVertex
 10
6537936.929
 20
5571084.31
 42
0.0
 70
0
  0
SEQEND
  5
46B
 100
AcDbEntity
  8
0
  0
TEXT
  5
46C
 100
AcDbEntity
  8
przewód telekomunikacyjny (linia)-Atr1
 62
30
 100
AcDbText
 10
6537980.66
 20
5571009.39
 40
1.5
  1
tA
 50
351.07
 41
0.9
 51
15.0
 72
0
 100
AcDbText
 73
0
  0
POLYLINE
  5
46D
 100
AcDbEntity
  8
przewód telekomunikacyjny (linia)
  6
CONTINUOUS
 62
30
 370
18
 100
AcDb2dPolyline
 66
1
 10
0
 20
0
 70
128
  0
VERTEX
  5
46E
 100
AcDbEntity
  8
0
 100
AcDbVertex
 100
AcDb2dVertex
 10
6537998.661
 20
5570993.04
 42
0.0
 70
0
  0
VERTEX
  5
46F
 100
AcDbEntity
  8
0
 100
AcDbVertex
 100
AcDb2dVertex
 10
6537988.34
 20
5571008.23
 42
0.0
 70
0
  0
VERTEX
  5
470
 100
AcDbEntity
  8
0
 100
AcDbVertex
 100
AcDb2dVertex
 10
6537976.61
 20
5571010.0
 42
0.0
 70
0
  0
SEQEND
  5
471
 100
AcDbEntity
  8
0
  0
TEXT
  5
472
 100
AcDbEntity
  8
przewód wodociągowy (linia)-Atr1
 62
5
 100
AcDbText
 10
6537986.93
 20
5571040.36
 40
1.5
  1
wA
 50
71.822
 41
0.9
 51
15.0
 72
0
 100
AcDbText
 73
0
  0
POLYLINE
  5
473
 100
AcDbEntity
  8
przewód wodociągowy (linia)
  6
CONTINUOUS
 62
5
 370
18
 100
AcDb2dPolyline
 66
1
 10
0
 20
0
 70
128
  0
VERTEX
  5
474
 100
AcDbEntity
  8
0
 100
AcDbVertex
 100
AcDb2dVertex
 10
6537994.59
 20
5571063.7
 42
0.0
 70
0
  0
VERTEX
  5
475
 100
AcDbEntity
  8
0
 100
AcDbVertex
 100
AcDb2dVertex
 10
6537980.97
 20
5571022.21
 42
0.0
 70
0
  0
SEQEND
  5
476
 100
AcDbEntity
  8
0
  0
POLYLINE
  5
477
 100
AcDbEntity
  8
823-Szczyt skarpy nieumocninej
  6
823-1000
 62
7
 370
13
 100
AcDb2dPolyline
 66
1
 10
0
 20
0
 70
128
  0
VERTEX
  5
478
 100
AcDbEntity
  8
0
 100
AcDbVertex
 100
AcDb2dVertex
 10
6537924.15
 20
5571074.41
 42
0.0
 70
0
  0
VERTEX
  5
479
 100
AcDbEntity
  8
0
 100
AcDbVertex
 100
AcDb2dVertex
 10
6537924.07
 20
5571074.244
 42
0.0
 70
0
  0
SEQEND
  5
47A
 100
AcDbEntity
  8
0
  0
POLYLINE
  5
47B
 100
AcDbEntity
  8
823-Szczyt skarpy nieumocninej
  6
823-1000
 62
7
 370
13
 100
AcDb2dPolyline
 66
1
 10
0
 20
0
 70
128
  0
VERTEX
  5
47C
 100
AcDbEntity
  8
0
 100
AcDbVertex
 100
AcDb2dVertex
 10
6537925.28
 20
5571054.81
 42
0.0
 70
0
  0
VERTEX
  5
47D
 100
AcDbEntity
  8
0
 100
AcDbVertex
 100
AcDb2dVertex
 10
6537924.07
 20
5571052.215
 42
0.0
 70
0
  0
SEQEND
  5
47E
 100
AcDbEntity
  8
0
  0
POLYLINE
  5
47F
 100
AcDbEntity
  8
824-Podnóże skarpy nieumocninej
  6
823-1000
 62
7
 370
13
 100
AcDb2dPolyline
 66
1
 10
0
 20
0
 70
128
  0
VERTEX
  5
480
 100
AcDbEntity
  8
0
 100
AcDbVertex
 100
AcDb2dVertex
 10
6537924.07
 20
5571041.474
 42
0.0
 70
0
  0
VERTEX
  5
481
 100
AcDbEntity
  8
0
 100
AcDbVertex
 100
AcDb2dVertex
 10
6537930.21
 20
5571052.93
 42
0.0
 70
0
  0
SEQEND
  5
482
 100
AcDbEntity
  8
0
  0
TEXT
  5
483
 100
AcDbEntity
  8
przewód elektroenergetyczny (linia)-Atr1
 62
1
 100
AcDbText
 10
6537927.27
 20
5571074.6
 40
1.5
  1
eNDc
 50
331.798
 41
0.9
 51
15.0
 72
0
 100
AcDbText
 73
0
  0
POLYLINE
  5
484
 100
AcDbEntity
  8
przewód elektroenergetyczny (linia)
  6
CONTINUOUS
 62
1
 370
18
 100
AcDb2dPolyline
 66
1
 10
0
 20
0
 70
128
  0
VERTEX
  5
485
 100
AcDbEntity
  8
0
 100
AcDbVertex
 100
AcDb2dVertex
 10
6537924.07
 20
5571076.316
 42
0.0
 70
0
  0
VERTEX
  5
486
 100
AcDbEntity
  8
0
 100
AcDbVertex
 100
AcDb2dVertex
 10
6537930.14
 20
5571073.06
 42
0.0
 70
0
  0
VERTEX
  5
487
 100
AcDbEntity
  8
0
 100
AcDbVertex
 100
AcDb2dVertex
 10
6537931.4
 20
5571072.33
 42
0.0
 70
0
  0
VERTEX
  5
488
 100
AcDbEntity
  8
0
 100
AcDbVertex
 100
AcDb2dVertex
 10
6537933.06
 20
5571071.43
 42
0.0
 70
0
  0
SEQEND
  5
489
 100
AcDbEntity
  8
0
  0
LINE
  5
48A
 100
AcDbEntity
  8
820-Skarpa nieumocniona
  6
CONTINUOUS
 62
7
 370
13
 100
AcDbLine
 10
6537924.43
 20
5571053.0
 11
6537929.08
 21
5571050.83
  0
LINE
  5
48B
 100
AcDbEntity
  8
820-Skarpa nieumocniona
  6
CONTINUOUS
 62
7
 370
13
 100
AcDbLine
 10
6537924.07
 20
5571048.756
 11
6537924.97
 21
5571048.34
  0
LINE
  5
48C
 100
AcDbEntity
  8
820-Skarpa nieumocniona
  6
CONTINUOUS
 62
7
 370
13
 100
AcDbLine
 10
6537924.07
 20
5571044.343
 11
6537925.3
 21
5571043.77
  0
TEXT
  5
48D
 100
AcDbEntity
  8
przewód wodociągowy (linia)-Atr1
 62
5
 100
AcDbText
 10
6537976.01
 20
5571023.83
 40
1.5
  1
wAc
 50
-15.74
 41
0.9
 51
15.0
 72
0
 100
AcDbText
 73
0
  0
POLYLINE
  5
48E
 100
AcDbEntity
  8
przewód wodociągowy (linia)
  6
CONTINUOUS
 62
5
 370
18
 100
AcDb2dPolyline
 66
1
 10
0
 20
0
 70
128
  0
VERTEX
  5
48F
 100
AcDbEntity
  8
0
 100
AcDbVertex
 100
AcDb2dVertex
 10
6537973.04
 20
5571024.66
 42
0.0
 70
0
  0
VERTEX
  5
490
 100
AcDbEntity
  8
0
 100
AcDbVertex
 100
AcDb2dVertex
 10
6537981.02
 20
5571022.42
 42
0.0
 70
0
  0
SEQEND
  5
491
 100
AcDbEntity
  8
0
  0
INSERT
  5
492
 100
AcDbEntity
  8
przewód elektroenergetyczny niskiego napięcia (linia) - symbol
  6
CONTINUOUS
 62
1
 370
18
 100
AcDbBlockReference
 66
0
  2
PE04
 10
6537924.07
 20
5571028.903
 50
321.165
 41
1.0
 42
1.0
  0
INSERT
  5
493
 100
AcDbEntity
  8
przewód elektroenergetyczny niskiego napięcia (linia) - symbol
  6
CONTINUOUS
 62
1
 370
18
 100
AcDbBlockReference
 66
0
  2
PE04
 10
6537946.16
 20
5571011.12
 50
141.165
 41
1.0
 42
1.0
  0
INSERT
  5
494
 100
AcDbEntity
  8
przewód elektroenergetyczny niskiego napięcia (linia) - symbol
  6
CONTINUOUS
 62
1
 370
18
 100
AcDbBlockReference
 66
0
  2
PE04
 10
6537944.508
 20
5571084.31
 50
246.166
 41
1.0
 42
1.0
  0
INSERT
  5
495
 100
AcDbEntity
  8
przewód elektroenergetyczny niskiego napięcia (linia) - symbol
  6
CONTINUOUS
 62
1
 370
18
 100
AcDbBlockReference
 66
0
  2
PE04
 10
6537937.59
 20
5571068.65
 50
66.166
 41
1.0
 42
1.0
  0
POLYLINE
  5
496
 100
AcDbEntity
  8
jezdnia (powierzchnia)
  6
mz3.0_1.0
 62
7
 370
18
 100
AcDb2dPolyline
 66
1
 10
0
 20
0
 70
128
  0
VERTEX
  5
497
 100
AcDbEntity
  8
0
 100
AcDbVertex
 100
AcDb2dVertex
 10
6538021.28
 20
5571076.485
 42
0.0
 70
0
  0
VERTEX
  5
498
 100
AcDbEntity
  8
0
 100
AcDbVertex
 100
AcDb2dVertex
 10
6538014.32
 20
5571064.64
 42
0.0
 70
0
  0
VERTEX
  5
499
 100
AcDbEntity
  8
0
 100
AcDbVertex
 100
AcDb2dVertex
 10
6538002.02
 20
5571046.21
 42
0.0
 70
0
  0
VERTEX
  5
49A
 100
AcDbEntity
  8
0
 100
AcDbVertex
 100
AcDb2dVertex
 10
6537990.92
 20
5571027.85
 42
0.0
 70
0
  0
VERTEX
  5
49B
 100
AcDbEntity
  8
0
 100
AcDbVertex
 100
AcDb2dVertex
 10
6537989.37
 20
5571023.35
 42
0.0
 70
0
  0
VERTEX
  5
49C
 100
AcDbEntity
  8
0
 100
AcDbVertex
 100
AcDb2dVertex
 10
6537988.45
 20
5571018.06
 42
0.0
 70
0
  0
VERTEX
  5
49D
 100
AcDbEntity
  8
0
 100
AcDbVertex
 100
AcDb2dVertex
 10
6537988.11
 20
5571015.88
 42
0.0
 70
0
  0
VERTEX
  5
49E
 100
AcDbEntity
  8
0
 100
AcDbVertex
 100
AcDb2dVertex
 10
6537988.15
 20
5571013.04
 42
0.0
 70
0
  0
VERTEX
  5
49F
 100
AcDbEntity
  8
0
 100
AcDbVertex
 100
AcDb2dVertex
 10
6537988.86
 20
5571007.22
 42
0.0
 70
0
  0
VERTEX
  5
4A0
 100
AcDbEntity
  8
0
 100
AcDbVertex
 100
AcDb2dVertex
 10
6537990.6
 20
5571002.22
 42
0.0
 70
0
  0
VERTEX
  5
4A1
 100
AcDbEntity
  8
0
 100
AcDbVertex
 100
AcDb2dVertex
 10
6537993.39
 20
5570997.92
 42
0.0
 70
0
  0
VERTEX
  5
4A2
 100
AcDbEntity
  8
0
 100
AcDbVertex
 100
AcDb2dVertex
 10
6537996.694
 20
5570993.04
 42
0.0
 70
0
  0
SEQEND
  5
4A3
 100
AcDbEntity
  8
0
  0
TEXT
  5
4A4
 100
AcDbEntity
  8
jezdnia (powierzchnia)-Atr17
 62
7
 100
AcDbText
 10
6537996.08
 20
5571038.74
 40
1.5
  1
j.mb.
 50
60.903
 41
0.9
 51
15.0
 72
0
 100
AcDbText
 73
0
  0
POLYLINE
  5
4A5
 100
AcDbEntity
  8
jezdnia (powierzchnia)
  6
mz3.0_1.0
 62
7
 370
18
 100
AcDb2dPolyline
 66
1
 10
0
 20
0
 70
128
  0
VERTEX
  5
4A6
 100
AcDbEntity
  8
0
 100
AcDbVertex
 100
AcDb2dVertex
 10
6537991.152
 20
5570993.04
 42
0.0
 70
0
  0
VERTEX
  5
4A7
 100
AcDbEntity
  8
0
 100
AcDbVertex
 100
AcDb2dVertex
 10
6537990.2
 20
5570994.2
 42
0.0
 70
0
  0
VERTEX
  5
4A8
 100
AcDbEntity
  8
0
 100
AcDbVertex
 100
AcDb2dVertex
 10
6537989.25
 20
5570995.13
 42
0.0
 70
0
  0
VERTEX
  5
4A9
 100
AcDbEntity
  8
0
 100
AcDbVertex
 100
AcDb2dVertex
 10
6537987.83
 20
5570998.35
 42
0.0
 70
0
  0
VERTEX
  5
4AA
 100
AcDbEntity
  8
0
 100
AcDbVertex
 100
AcDb2dVertex
 10
6537986.16
 20
5571002.02
 42
0.0
 70
0
  0
VERTEX
  5
4AB
 100
AcDbEntity
  8
0
 100
AcDbVertex
 100
AcDb2dVertex
 10
6537985.02
 20
5571005.39
 42
0.0
 70
0
  0
VERTEX
  5
4AC
 100
AcDbEntity
  8
0
 100
AcDbVertex
 100
AcDb2dVertex
 10
6537984.3
 20
5571009.6
 42
0.0
 70
0
  0
VERTEX
  5
4AD
 100
AcDbEntity
  8
0
 100
AcDbVertex
 100
AcDb2dVertex
 10
6537984.0
 20
5571012.24
 42
0.0
 70
0
  0
VERTEX
  5
4AE
 100
AcDbEntity
  8
0
 100
AcDbVertex
 100
AcDb2dVertex
 10
6537984.44
 20
5571015.82
 42
0.0
 70
0
  0
VERTEX
  5
4AF
 100
AcDbEntity
  8
0
 100
AcDbVertex
 100
AcDb2dVertex
 10
6537984.89
 20
5571018.73
 42
0.0
 70
0
  0
VERTEX
  5
4B0
 100
AcDbEntity
  8
0
 100
AcDbVertex
 100
AcDb2dVertex
 10
6537986.56
 20
5571024.28
 42
0.0
 70
0
  0
VERTEX
  5
4B1
 100
AcDbEntity
  8
0
 100
AcDbVertex
 100
AcDb2dVertex
 10
6537988.06
 20
5571028.6
 42
0.0
 70
0
  0
VERTEX
  5
4B2
 100
AcDbEntity
  8
0
 100
AcDbVertex
 100
AcDb2dVertex
 10
6537998.94
 20
5571048.15
 42
0.0
 70
0
  0
VERTEX
  5
4B3
 100
AcDbEntity
  8
0
 100
AcDbVertex
 100
AcDb2dVertex
 10
6538011.19
 20
5571066.77
 42
0.0
 70
0
  0
VERTEX
  5
4B4
 100
AcDbEntity
  8
0
 100
AcDbVertex
 100
AcDb2dVertex
 10
6538019.65
 20
5571080.63
 42
0.0
 70
0
  0
VERTEX
  5
4B5
 100
AcDbEntity
  8
0
 100
AcDbVertex
 100
AcDb2dVertex
 10
6538021.28
 20
5571083.668
 42
0.0
 70
0
  0
SEQEND
  5
4B6
 100
AcDbEntity
  8
0
  0
POLYLINE
  5
4B7
 100
AcDbEntity
  8
824-Podnóże skarpy nieumocninej
  6
823-1000
 62
7
 370
13
 100
AcDb2dPolyline
 66
1
 10
0
 20
0
 70
128
  0
VERTEX
  5
4B8
 100
AcDbEntity
  8
0
 100
AcDbVertex
 100
AcDb2dVertex
 10
6538007.28
 20
5570993.04
 42
0.0
 70
0
  0
VERTEX
  5
4B9
 100
AcDbEntity
  8
0
 100
AcDbVertex
 100
AcDb2dVertex
 10
6538005.83
 20
5570993.71
 42
0.0
 70
0
  0
VERTEX
  5
4BA
 100
AcDbEntity
  8
0
 100
AcDbVertex
 100
AcDb2dVertex
 10
6538004.19
 20
5570999.65
 42
0.0
 70
0
  0
VERTEX
  5
4BB
 100
AcDbEntity
  8
0
 100
AcDbVertex
 100
AcDb2dVertex
 10
6538007.43
 20
5571011.74
 42
0.0
 70
0
  0
VERTEX
  5
4BC
 100
AcDbEntity
  8
0
 100
AcDbVertex
 100
AcDb2dVertex
 10
6538011.31
 20
5571033.8
 42
0.0
 70
0
  0
VERTEX
  5
4BD
 100
AcDbEntity
  8
0
 100
AcDbVertex
 100
AcDb2dVertex
 10
6538014.34
 20
5571048.51
 42
0.0
 70
0
  0
VERTEX
  5
4BE
 100
AcDbEntity
  8
0
 100
AcDbVertex
 100
AcDb2dVertex
 10
6538014.48
 20
5571048.66
 42
0.0
 70
0
  0
SEQEND
  5
4BF
 100
AcDbEntity
  8
0
  0
POLYLINE
  5
4C0
 100
AcDbEntity
  8
823-Szczyt skarpy nieumocninej
  6
823-1000
 62
7
 370
13
 100
AcDb2dPolyline
 66
1
 10
0
 20
0
 70
128
  0
VERTEX
  5
4C1
 100
AcDbEntity
  8
0
 100
AcDbVertex
 100
AcDb2dVertex
 10
6538012.09
 20
5571051.47
 42
0.0
 70
0
  0
VERTEX
  5
4C2
 100
AcDbEntity
  8
0
 100
AcDbVertex
 100
AcDb2dVertex
 10
6538008.73
 20
5571034.49
 42
0.0
 70
0
  0
VERTEX
  5
4C3
 100
AcDbEntity
  8
0
 100
AcDbVertex
 100
AcDb2dVertex
 10
6538008.49
 20
5571029.74
 42
0.0
 70
0
  0
VERTEX
  5
4C4
 100
AcDbEntity
  8
0
 100
AcDbVertex
 100
AcDb2dVertex
 10
6538008.37
 20
5571027.68
 42
0.0
 70
0
  0
VERTEX
  5
4C5
 100
AcDbEntity
  8
0
 100
AcDbVertex
 100
AcDb2dVertex
 10
6538005.07
 20
5571012.22
 42
0.0
 70
0
  0
VERTEX
  5
4C6
 100
AcDbEntity
  8
0
 100
AcDbVertex
 100
AcDb2dVertex
 10
6538002.24
 20
5571000.06
 42
0.0
 70
0
  0
VERTEX
  5
4C7
 100
AcDbEntity
  8
0
 100
AcDbVertex
 100
AcDb2dVertex
 10
6538003.881
 20
5570993.04
 42
0.0
 70
0
  0
SEQEND
  5
4C8
 100
AcDbEntity
  8
0
  0
POLYLINE
  5
4C9
 100
AcDbEntity
  8
823-Szczyt skarpy nieumocninej
  6
823-1000
 62
7
 370
13
 100
AcDb2dPolyline
 66
1
 10
0
 20
0
 70
128
  0
VERTEX
  5
4CA
 100
AcDbEntity
  8
0
 100
AcDbVertex
 100
AcDb2dVertex
 10
6537937.75
 20
5571080.35
 42
0.0
 70
0
  0
VERTEX
  5
4CB
 100
AcDbEntity
  8
0
 100
AcDbVertex
 100
AcDb2dVertex
 10
6537939.581
 20
5571084.31
 42
0.0
 70
0
  0
SEQEND
  5
4CC
 100
AcDbEntity
  8
0
  0
POLYLINE
  5
4CD
 100
AcDbEntity
  8
824-Podnóże skarpy nieumocninej
  6
823-1000
 62
7
 370
13
 100
AcDb2dPolyline
 66
1
 10
0
 20
0
 70
128
  0
VERTEX
  5
4CE
 100
AcDbEntity
  8
0
 100
AcDbVertex
 100
AcDb2dVertex
 10
6537944.358
 20
5571084.31
 42
0.0
 70
0
  0
VERTEX
  5
4CF
 100
AcDbEntity
  8
0
 100
AcDbVertex
 100
AcDb2dVertex
 10
6537942.78
 20
5571080.26
 42
0.0
 70
0
  0
VERTEX
  5
4D0
 100
AcDbEntity
  8
0
 100
AcDbVertex
 100
AcDb2dVertex
 10
6537937.75
 20
5571080.35
 42
0.0
 70
0
  0
SEQEND
  5
4D1
 100
AcDbEntity
  8
0
  0
POLYLINE
  5
4D2
 100
AcDbEntity
  8
chodnik (powierzchnia)
  6
2.0_1.0
 62
7
 370
18
 100
AcDb2dPolyline
 66
1
 10
0
 20
0
 70
128
  0
VERTEX
  5
4D3
 100
AcDbEntity
  8
0
 100
AcDbVertex
 100
AcDb2dVertex
 10
6537939.338
 20
5571084.31
 42
0.0
 70
0
  0
VERTEX
  5
4D4
 100
AcDbEntity
  8
0
 100
AcDbVertex
 100
AcDb2dVertex
 10
6537925.28
 20
5571054.81
 42
0.0
 70
0
  0
VERTEX
  5
4D5
 100
AcDbEntity
  8
0
 100
AcDbVertex
 100
AcDb2dVertex
 10
6537924.07
 20
5571052.215
 42
0.0
 70
0
  0
SEQEND
  5
4D6
 100
AcDbEntity
  8
0
  0
LINE
  5
4D7
 100
AcDbEntity
  8
820-Skarpa nieumocniona
  6
CONTINUOUS
 62
7
 370
13
 100
AcDbLine
 10
6537937.96
 20
5571080.8
 11
6537938.99
 21
5571080.33
  0
LINE
  5
4D8
 100
AcDbEntity
  8
820-Skarpa nieumocniona
  6
CONTINUOUS
 62
7
 370
13
 100
AcDbLine
 10
6537938.38
 20
5571081.71
 11
6537939.92
 21
5571081.0
  0
LINE
  5
4D9
 100
AcDbEntity
  8
820-Skarpa nieumocniona
  6
CONTINUOUS
 62
7
 370
13
 100
AcDbLine
 10
6537938.8
 20
5571082.62
 11
6537942.95
 21
5571080.7
  0
LINE
  5
4DA
 100
AcDbEntity
  8
820-Skarpa nieumocniona
  6
CONTINUOUS
 62
7
 370
13
 100
AcDbLine
 10
6537939.22
 20
5571083.53
 11
6537941.27
 21
5571082.58
  0
LINE
  5
4DB
 100
AcDbEntity
  8
820-Skarpa nieumocniona
  6
CONTINUOUS
 62
7
 370
13
 100
AcDbLine
 10
6537939.901
 20
5571084.31
 11
6537943.68
 21
5571082.57
  0
MLINE
  5
4DC
 100
AcDbEntity
  8
murek oporowy (linia)
  6
450-1000
 62
7
 370
18
 100
AcDbMline
  2
450-1000
 340
3C
 40
1.0
 70
1
 71
1
 72
3
 73
2
 10
6537990.44
 20
5571023.45
 210
0.0
 220
0.0
 230
1.0
 11
6537990.44
 21
5571023.45
 12
0.958
 22
-0.287
 13
0.287
 23
0.958
 74
2
 41
0.35
 41
0.0
 75
0
 74
2
 41
-0.35
 41
0.0
 75
0
 11
6537997.86
 21
5571021.23
 12
0.254
 22
0.967
 13
-0.704
 23
1.254
 74
2
 41
0.503
 41
0.0
 75
0
 74
2
 41
-0.503
 41
0.0
 75
0
 11
6537998.41
 21
5571023.32
 12
0.254
 22
0.967
 13
-0.967
 23
0.254
 74
2
 41
0.35
 41
0.0
 75
0
 74
2
 41
-0.35
 41
0.0
 75
0
  0
TEXT
  5
4DD
 100
AcDbEntity
  8
plac (powierzchnia)-Atr17
 62
7
 100
AcDbText
 10
6537997.21
 20
5571027.68
 40
1.5
  1
pb.
 50
0.0
 41
0.9
 51
15.0
 72
0
 100
AcDbText
 73
0
  0
POLYLINE
  5
4DE
 100
AcDbEntity
  8
plac (powierzchnia)
  6
mz3.0_1.0
 62
7
 370
18
 100
AcDb2dPolyline
 66
1
 10
0
 20
0
 70
129
  0
VERTEX
  5
4DF
 100
AcDbEntity
  8
0
 100
AcDbVertex
 100
AcDb2dVertex
 10
6537998.9
 20
5571024.99
 42
0.0
 70
0
  0
VERTEX
  5
4E0
 100
AcDbEntity
  8
0
 100
AcDbVertex
 100
AcDb2dVertex
 10
6537994.15
 20
5571025.16
 42
0.0
 70
0
  0
VERTEX
  5
4E1
 100
AcDbEntity
  8
0
 100
AcDbVertex
 100
AcDb2dVertex
 10
6537996.57
 20
5571030.56
 42
0.0
 70
0
  0
VERTEX
  5
4E2
 100
AcDbEntity
  8
0
 100
AcDbVertex
 100
AcDb2dVertex
 10
6537997.54
 20
5571032.44
 42
0.0
 70
0
  0
VERTEX
  5
4E3
 100
AcDbEntity
  8
0
 100
AcDbVertex
 100
AcDb2dVertex
 10
6538000.47
 20
5571031.29
 42
0.0
 70
0
  0
VERTEX
  5
4E4
 100
AcDbEntity
  8
0
 100
AcDbVertex
 100
AcDb2dVertex
 10
6538000.08
 20
5571029.26
 42
0.0
 70
0
  0
SEQEND
  5
4E5
 100
AcDbEntity
  8
0
  0
TEXT
  5
4E6
 100
AcDbEntity
  8
plac (powierzchnia)-Atr17
 62
7
 100
AcDbText
 10
6538000.31
 20
5571026.72
 40
1.5
  1
pb.
 50
0.0
 41
0.9
 51
15.0
 72
0
 100
AcDbText
 73
0
  0
POLYLINE
  5
4E7
 100
AcDbEntity
  8
plac (powierzchnia)
  6
mz3.0_1.0
 62
7
 370
18
 100
AcDb2dPolyline
 66
1
 10
0
 20
0
 70
129
  0
VERTEX
  5
4E8
 100
AcDbEntity
  8
0
 100
AcDbVertex
 100
AcDb2dVertex
 10
6538000.08
 20
5571029.26
 42
0.0
 70
0
  0
VERTEX
  5
4E9
 100
AcDbEntity
  8
0
 100
AcDbVertex
 100
AcDb2dVertex
 10
6538002.81
 20
5571028.53
 42
0.0
 70
0
  0
VERTEX
  5
4EA
 100
AcDbEntity
  8
0
 100
AcDbVertex
 100
AcDb2dVertex
 10
6538001.87
 20
5571024.41
 42
0.0
 70
0
  0
VERTEX
  5
4EB
 100
AcDbEntity
  8
0
 100
AcDbVertex
 100
AcDb2dVertex
 10
6537998.9
 20
5571024.99
 42
0.0
 70
0
  0
SEQEND
  5
4EC
 100
AcDbEntity
  8
0
  0
TEXT
  5
4ED
 100
AcDbEntity
  8
rów melioracyjny (powierzchnia)-Atr17
 62
7
 100
AcDbText
 10
6537993.58
 20
5571023.78
 40
1.5
  1
w.
 50
0.0
 41
0.9
 51
15.0
 72
0
 100
AcDbText
 73
0
  0
POLYLINE
  5
4EE
 100
AcDbEntity
  8
rów melioracyjny (powierzchnia)
  6
1.0_1.0
 62
7
 370
18
 100
AcDb2dPolyline
 66
1
 10
0
 20
0
 70
129
  0
VERTEX
  5
4EF
 100
AcDbEntity
  8
0
 100
AcDbVertex
 100
AcDb2dVertex
 10
6537996.57
 20
5571030.56
 42
0.0
 70
0
  0
VERTEX
  5
4F0
 100
AcDbEntity
  8
0
 100
AcDbVertex
 100
AcDb2dVertex
 10
6537994.15
 20
5571025.16
 42
0.0
 70
0
  0
VERTEX
  5
4F1
 100
AcDbEntity
  8
0
 100
AcDbVertex
 100
AcDb2dVertex
 10
6537998.9
 20
5571024.99
 42
0.0
 70
0
  0
VERTEX
  5
4F2
 100
AcDbEntity
  8
0
 100
AcDbVertex
 100
AcDb2dVertex
 10
6537998.41
 20
5571023.32
 42
0.0
 70
0
  0
VERTEX
  5
4F3
 100
AcDbEntity
  8
0
 100
AcDbVertex
 100
AcDb2dVertex
 10
6537997.86
 20
5571021.23
 42
0.0
 70
0
  0
VERTEX
  5
4F4
 100
AcDbEntity
  8
0
 100
AcDbVertex
 100
AcDb2dVertex
 10
6537990.44
 20
5571023.45
 42
0.0
 70
0
  0
VERTEX
  5
4F5
 100
AcDbEntity
  8
0
 100
AcDbVertex
 100
AcDb2dVertex
 10
6537991.41
 20
5571026.23
 42
0.0
 70
0
  0
VERTEX
  5
4F6
 100
AcDbEntity
  8
0
 100
AcDbVertex
 100
AcDb2dVertex
 10
6537991.91
 20
5571026.02
 42
0.0
 70
0
  0
VERTEX
  5
4F7
 100
AcDbEntity
  8
0
 100
AcDbVertex
 100
AcDb2dVertex
 10
6537994.52
 20
5571027.28
 42
0.0
 70
0
  0
SEQEND
  5
4F8
 100
AcDbEntity
  8
0
  0
POLYLINE
  5
4F9
 100
AcDbEntity
  8
przepust (powierzchnia)
  6
0.7_0.7
 62
7
 370
35
 100
AcDb2dPolyline
 66
1
 10
0
 20
0
 70
129
  0
VERTEX
  5
4FA
 100
AcDbEntity
  8
0
 100
AcDbVertex
 100
AcDb2dVertex
 10
6537986.96
 20
5571028.05
 42
0.0
 70
0
  0
VERTEX
  5
4FB
 100
AcDbEntity
  8
0
 100
AcDbVertex
 100
AcDb2dVertex
 10
6537991.41
 20
5571026.23
 42
0.0
 70
0
  0
VERTEX
  5
4FC
 100
AcDbEntity
  8
0
 100
AcDbVertex
 100
AcDb2dVertex
 10
6537990.66
 20
5571023.73
 42
0.0
 70
0
  0
VERTEX
  5
4FD
 100
AcDbEntity
  8
0
 100
AcDbVertex
 100
AcDb2dVertex
 10
6537986.18
 20
5571025.56
 42
0.0
 70
0
  0
SEQEND
  5
4FE
 100
AcDbEntity
  8
0
  0
POLYLINE
  5
4FF
 100
AcDbEntity
  8
824-Podnóże skarpy nieumocninej
  6
823-1000
 62
7
 370
13
 100
AcDb2dPolyline
 66
1
 10
0
 20
0
 70
128
  0
VERTEX
  5
500
 100
AcDbEntity
  8
0
 100
AcDbVertex
 100
AcDb2dVertex
 10
6537961.72
 20
5571036.31
 42
0.0
 70
0
  0
VERTEX
  5
501
 100
AcDbEntity
  8
0
 100
AcDbVertex
 100
AcDb2dVertex
 10
6537957.13
 20
5571037.96
 42
0.0
 70
0
  0
VERTEX
  5
502
 100
AcDbEntity
  8
0
 100
AcDbVertex
 100
AcDb2dVertex
 10
6537949.15
 20
5571040.29
 42
0.0
 70
0
  0
VERTEX
  5
503
 100
AcDbEntity
  8
0
 100
AcDbVertex
 100
AcDb2dVertex
 10
6537924.07
 20
5571037.775
 42
0.0
 70
0
  0
SEQEND
  5
504
 100
AcDbEntity
  8
0
  0
POLYLINE
  5
505
 100
AcDbEntity
  8
823-Szczyt skarpy nieumocninej
  6
823-1000
 62
7
 370
13
 100
AcDb2dPolyline
 66
1
 10
0
 20
0
 70
128
  0
VERTEX
  5
506
 100
AcDbEntity
  8
0
 100
AcDbVertex
 100
AcDb2dVertex
 10
6537961.24
 20
5571035.53
 42
0.0
 70
0
  0
VERTEX
  5
507
 100
AcDbEntity
  8
0
 100
AcDbVertex
 100
AcDb2dVertex
 10
6537955.02
 20
5571037.03
 42
0.0
 70
0
  0
VERTEX
  5
508
 100
AcDbEntity
  8
0
 100
AcDbVertex
 100
AcDb2dVertex
 10
6537952.82
 20
5571037.4
 42
0.0
 70
0
  0
VERTEX
  5
509
 100
AcDbEntity
  8
0
 100
AcDbVertex
 100
AcDb2dVertex
 10
6537945.42
 20
5571037.58
 42
0.0
 70
0
  0
VERTEX
  5
50A
 100
AcDbEntity
  8
0
 100
AcDbVertex
 100
AcDb2dVertex
 10
6537924.07
 20
5571034.97
 42
0.0
 70
0
  0
SEQEND
  5
50B
 100
AcDbEntity
  8
0
  0
LINE
  5
50C
 100
AcDbEntity
  8
820-Skarpa nieumocniona
  6
CONTINUOUS
 62
7
 370
13
 100
AcDbLine
 10
6537960.75
 20
5571035.65
 11
6537960.98
 21
5571036.58
  0
LINE
  5
50D
 100
AcDbEntity
  8
820-Skarpa nieumocniona
  6
CONTINUOUS
 62
7
 370
13
 100
AcDbLine
 10
6537959.78
 20
5571035.88
 11
6537959.91
 21
5571036.4
  0
LINE
  5
50E
 100
AcDbEntity
  8
820-Skarpa nieumocniona
  6
CONTINUOUS
 62
7
 370
13
 100
AcDbLine
 10
6537958.81
 20
5571036.12
 11
6537959.08
 21
5571037.26
  0
LINE
  5
50F
 100
AcDbEntity
  8
820-Skarpa nieumocniona
  6
CONTINUOUS
 62
7
 370
13
 100
AcDbLine
 10
6537957.84
 20
5571036.35
 11
6537957.99
 21
5571036.97
  0
LINE
  5
510
 100
AcDbEntity
  8
820-Skarpa nieumocniona
  6
CONTINUOUS
 62
7
 370
13
 100
AcDbLine
 10
6537956.87
 20
5571036.58
 11
6537957.19
 21
5571037.94
  0
LINE
  5
511
 100
AcDbEntity
  8
820-Skarpa nieumocniona
  6
CONTINUOUS
 62
7
 370
13
 100
AcDbLine
 10
6537955.89
 20
5571036.82
 11
6537956.06
 21
5571037.52
  0
LINE
  5
512
 100
AcDbEntity
  8
820-Skarpa nieumocniona
  6
CONTINUOUS
 62
7
 370
13
 100
AcDbLine
 10
6537954.92
 20
5571037.05
 11
6537955.17
 21
5571038.53
  0
LINE
  5
513
 100
AcDbEntity
  8
820-Skarpa nieumocniona
  6
CONTINUOUS
 62
7
 370
13
 100
AcDbLine
 10
6537953.93
 20
5571037.21
 11
6537954.07
 21
5571038.01
  0
LINE
  5
514
 100
AcDbEntity
  8
820-Skarpa nieumocniona
  6
CONTINUOUS
 62
7
 370
13
 100
AcDbLine
 10
6537952.95
 20
5571037.38
 11
6537953.24
 21
5571039.1
  0
LINE
  5
515
 100
AcDbEntity
  8
820-Skarpa nieumocniona
  6
CONTINUOUS
 62
7
 370
13
 100
AcDbLine
 10
6537951.95
 20
5571037.42
 11
6537951.97
 21
5571038.44
  0
LINE
  5
516
 100
AcDbEntity
  8
820-Skarpa nieumocniona
  6
CONTINUOUS
 62
7
 370
13
 100
AcDbLine
 10
6537950.95
 20
5571037.45
 11
6537951.01
 21
5571039.75
  0
LINE
  5
517
 100
AcDbEntity
  8
820-Skarpa nieumocniona
  6
CONTINUOUS
 62
7
 370
13
 100
AcDbLine
 10
6537949.95
 20
5571037.47
 11
6537949.98
 21
5571038.75
  0
LINE
  5
518
 100
AcDbEntity
  8
820-Skarpa nieumocniona
  6
CONTINUOUS
 62
7
 370
13
 100
AcDbLine
 10
6537948.95
 20
5571037.49
 11
6537949.02
 21
5571040.28
  0
LINE
  5
519
 100
AcDbEntity
  8
820-Skarpa nieumocniona
  6
CONTINUOUS
 62
7
 370
13
 100
AcDbLine
 10
6537947.95
 20
5571037.52
 11
6537947.98
 21
5571038.85
  0
LINE
  5
51A
 100
AcDbEntity
  8
820-Skarpa nieumocniona
  6
CONTINUOUS
 62
7
 370
13
 100
AcDbLine
 10
6537946.95
 20
5571037.54
 11
6537947.01
 21
5571040.08
  0
LINE
  5
51B
 100
AcDbEntity
  8
820-Skarpa nieumocniona
  6
CONTINUOUS
 62
7
 370
13
 100
AcDbLine
 10
6537945.95
 20
5571037.57
 11
6537945.98
 21
5571038.77
  0
LINE
  5
51C
 100
AcDbEntity
  8
820-Skarpa nieumocniona
  6
CONTINUOUS
 62
7
 370
13
 100
AcDbLine
 10
6537944.95
 20
5571037.52
 11
6537944.67
 21
5571039.84
  0
LINE
  5
51D
 100
AcDbEntity
  8
820-Skarpa nieumocniona
  6
CONTINUOUS
 62
7
 370
13
 100
AcDbLine
 10
6537943.96
 20
5571037.4
 11
6537943.82
 21
5571038.57
  0
LINE
  5
51E
 100
AcDbEntity
  8
820-Skarpa nieumocniona
  6
CONTINUOUS
 62
7
 370
13
 100
AcDbLine
 10
6537942.97
 20
5571037.28
 11
6537942.68
 21
5571039.64
  0
LINE
  5
51F
 100
AcDbEntity
  8
820-Skarpa nieumocniona
  6
CONTINUOUS
 62
7
 370
13
 100
AcDbLine
 10
6537941.98
 20
5571037.16
 11
6537941.83
 21
5571038.35
  0
LINE
  5
520
 100
AcDbEntity
  8
820-Skarpa nieumocniona
  6
CONTINUOUS
 62
7
 370
13
 100
AcDbLine
 10
6537940.98
 20
5571037.04
 11
6537940.69
 21
5571039.44
  0
LINE
  5
521
 100
AcDbEntity
  8
820-Skarpa nieumocniona
  6
CONTINUOUS
 62
7
 370
13
 100
AcDbLine
 10
6537939.99
 20
5571036.92
 11
6537939.84
 21
5571038.13
  0
LINE
  5
522
 100
AcDbEntity
  8
820-Skarpa nieumocniona
  6
CONTINUOUS
 62
7
 370
13
 100
AcDbLine
 10
6537939.0
 20
5571036.8
 11
6537938.7
 21
5571039.24
  0
LINE
  5
523
 100
AcDbEntity
  8
820-Skarpa nieumocniona
  6
CONTINUOUS
 62
7
 370
13
 100
AcDbLine
 10
6537938.01
 20
5571036.67
 11
6537937.86
 21
5571037.91
  0
LINE
  5
524
 100
AcDbEntity
  8
820-Skarpa nieumocniona
  6
CONTINUOUS
 62
7
 370
13
 100
AcDbLine
 10
6537937.01
 20
5571036.55
 11
6537936.71
 21
5571039.04
  0
LINE
  5
525
 100
AcDbEntity
  8
820-Skarpa nieumocniona
  6
CONTINUOUS
 62
7
 370
13
 100
AcDbLine
 10
6537936.02
 20
5571036.43
 11
6537935.87
 21
5571037.69
  0
LINE
  5
526
 100
AcDbEntity
  8
820-Skarpa nieumocniona
  6
CONTINUOUS
 62
7
 370
13
 100
AcDbLine
 10
6537935.03
 20
5571036.31
 11
6537934.72
 21
5571038.84
  0
LINE
  5
527
 100
AcDbEntity
  8
820-Skarpa nieumocniona
  6
CONTINUOUS
 62
7
 370
13
 100
AcDbLine
 10
6537934.04
 20
5571036.19
 11
6537933.88
 21
5571037.47
  0
LINE
  5
528
 100
AcDbEntity
  8
820-Skarpa nieumocniona
  6
CONTINUOUS
 62
7
 370
13
 100
AcDbLine
 10
6537933.04
 20
5571036.07
 11
6537932.73
 21
5571038.64
  0
LINE
  5
529
 100
AcDbEntity
  8
820-Skarpa nieumocniona
  6
CONTINUOUS
 62
7
 370
13
 100
AcDbLine
 10
6537932.05
 20
5571035.95
 11
6537931.89
 21
5571037.24
  0
LINE
  5
52A
 100
AcDbEntity
  8
820-Skarpa nieumocniona
  6
CONTINUOUS
 62
7
 370
13
 100
AcDbLine
 10
6537931.06
 20
5571035.82
 11
6537930.74
 21
5571038.44
  0
LINE
  5
52B
 100
AcDbEntity
  8
820-Skarpa nieumocniona
  6
CONTINUOUS
 62
7
 370
13
 100
AcDbLine
 10
6537930.07
 20
5571035.7
 11
6537929.9
 21
5571037.02
  0
LINE
  5
52C
 100
AcDbEntity
  8
820-Skarpa nieumocniona
  6
CONTINUOUS
 62
7
 370
13
 100
AcDbLine
 10
6537929.07
 20
5571035.58
 11
6537928.75
 21
5571038.24
  0
LINE
  5
52D
 100
AcDbEntity
  8
820-Skarpa nieumocniona
  6
CONTINUOUS
 62
7
 370
13
 100
AcDbLine
 10
6537928.08
 20
5571035.46
 11
6537927.92
 21
5571036.8
  0
LINE
  5
52E
 100
AcDbEntity
  8
820-Skarpa nieumocniona
  6
CONTINUOUS
 62
7
 370
13
 100
AcDbLine
 10
6537927.09
 20
5571035.34
 11
6537926.76
 21
5571038.04
  0
LINE
  5
52F
 100
AcDbEntity
  8
820-Skarpa nieumocniona
  6
CONTINUOUS
 62
7
 370
13
 100
AcDbLine
 10
6537926.1
 20
5571035.22
 11
6537925.93
 21
5571036.58
  0
LINE
  5
530
 100
AcDbEntity
  8
820-Skarpa nieumocniona
  6
CONTINUOUS
 62
7
 370
13
 100
AcDbLine
 10
6537925.1
 20
5571035.1
 11
6537924.77
 21
5571037.85
  0
LINE
  5
531
 100
AcDbEntity
  8
820-Skarpa nieumocniona
  6
CONTINUOUS
 62
7
 370
13
 100
AcDbLine
 10
6537924.11
 20
5571034.98
 11
6537924.07
 21
5571035.305
  0
TEXT
  5
532
 100
AcDbEntity
  8
jezdnia (powierzchnia)-Atr17
 62
7
 100
AcDbText
 10
6537979.76
 20
5571015.65
 40
1.5
  1
j.gr.
 50
0.0
 41
0.9
 51
15.0
 72
0
 100
AcDbText
 73
0
  0
POLYLINE
  5
533
 100
AcDbEntity
  8
jezdnia (powierzchnia)
  6
mz3.0_1.0
 62
7
 370
18
 100
AcDb2dPolyline
 66
1
 10
0
 20
0
 70
129
  0
VERTEX
  5
534
 100
AcDbEntity
  8
0
 100
AcDbVertex
 100
AcDb2dVertex
 10
6537977.94
 20
5571017.98
 42
0.0
 70
0
  0
VERTEX
  5
535
 100
AcDbEntity
  8
0
 100
AcDbVertex
 100
AcDb2dVertex
 10
6537981.91
 20
5571017.91
 42
0.0
 70
0
  0
VERTEX
  5
536
 100
AcDbEntity
  8
0
 100
AcDbVertex
 100
AcDb2dVertex
 10
6537984.89
 20
5571018.73
 42
0.0
 70
0
  0
VERTEX
  5
537
 100
AcDbEntity
  8
0
 100
AcDbVertex
 100
AcDb2dVertex
 10
6537984.44
 20
5571015.82
 42
0.0
 70
0
  0
VERTEX
  5
538
 100
AcDbEntity
  8
0
 100
AcDbVertex
 100
AcDb2dVertex
 10
6537984.0
 20
5571012.24
 42
0.0
 70
0
  0
VERTEX
  5
539
 100
AcDbEntity
  8
0
 100
AcDbVertex
 100
AcDb2dVertex
 10
6537981.47
 20
5571013.92
 42
0.0
 70
0
  0
VERTEX
  5
53A
 100
AcDbEntity
  8
0
 100
AcDbVertex
 100
AcDb2dVertex
 10
6537978.19
 20
5571014.73
 42
0.0
 70
0
  0
SEQEND
  5
53B
 100
AcDbEntity
  8
0
  0
TEXT
  5
53C
 100
AcDbEntity
  8
jezdnia (powierzchnia)-Atr17
 62
7
 100
AcDbText
 10
6537981.26
 20
5571006.53
 40
1.5
  1
j.gr.
 50
0.0
 41
0.9
 51
15.0
 72
0
 100
AcDbText
 73
0
  0
POLYLINE
  5
53D
 100
AcDbEntity
  8
jezdnia (powierzchnia)
  6
mz3.0_1.0
 62
7
 370
18
 100
AcDb2dPolyline
 66
1
 10
0
 20
0
 70
129
  0
VERTEX
  5
53E
 100
AcDbEntity
  8
0
 100
AcDbVertex
 100
AcDb2dVertex
 10
6537978.68
 20
5571007.78
 42
0.0
 70
0
  0
VERTEX
  5
53F
 100
AcDbEntity
  8
0
 100
AcDbVertex
 100
AcDb2dVertex
 10
6537984.3
 20
5571009.6
 42
0.0
 70
0
  0
VERTEX
  5
540
 100
AcDbEntity
  8
0
 100
AcDbVertex
 100
AcDb2dVertex
 10
6537985.02
 20
5571005.39
 42
0.0
 70
0
  0
VERTEX
  5
541
 100
AcDbEntity
  8
0
 100
AcDbVertex
 100
AcDb2dVertex
 10
6537978.94
 20
5571004.7
 42
0.0
 70
0
  0
SEQEND
  5
542
 100
AcDbEntity
  8
0
  0
INSERT
  5
543
 100
AcDbEntity
  8
przewód elektroenergetyczny niskiego napięcia (linia) - symbol
  6
CONTINUOUS
 62
1
 370
18
 100
AcDbBlockReference
 66
0
  2
PE04
 10
6537952.97
 20
5571019.56
 50
351.247
 41
1.0
 42
1.0
  0
INSERT
  5
544
 100
AcDbEntity
  8
przewód elektroenergetyczny niskiego napięcia (linia) - symbol
  6
CONTINUOUS
 62
1
 370
18
 100
AcDbBlockReference
 66
0
  2
PE04
 10
6537989.21
 20
5571013.98
 50
171.247
 41
1.0
 42
1.0
  0
POLYLINE
  5
545
 100
AcDbEntity
  8
ogrodzenie trwałe (linia)
  6
902-1000
 62
7
 370
25
 100
AcDb2dPolyline
 66
1
 10
0
 20
0
 70
128
  0
VERTEX
  5
546
 100
AcDbEntity
  8
0
 100
AcDbVertex
 100
AcDb2dVertex
 10
6537979.33
 20
5571026.85
 42
0.0
 70
0
  0
VERTEX
  5
547
 100
AcDbEntity
  8
0
 100
AcDbVertex
 100
AcDb2dVertex
 10
6537960.8
 20
5571034.58
 42
0.0
 70
0
  0
VERTEX
  5
548
 100
AcDbEntity
  8
0
 100
AcDbVertex
 100
AcDb2dVertex
 10
6537953.67
 20
5571037.12
 42
0.0
 70
0
  0
VERTEX
  5
549
 100
AcDbEntity
  8
0
 100
AcDbVertex
 100
AcDb2dVertex
 10
6537951.32
 20
5571037.84
 42
0.0
 70
0
  0
SEQEND
  5
54A
 100
AcDbEntity
  8
0
  0
POLYLINE
  5
54B
 100
AcDbEntity
  8
bariera drogowa ochronna (linia)
  6
ok01_1000
 62
7
 370
18
 100
AcDb2dPolyline
 66
1
 10
0
 20
0
 70
128
  0
VERTEX
  5
54C
 100
AcDbEntity
  8
0
 100
AcDbVertex
 100
AcDb2dVertex
 10
6537989.61
 20
5571021.17
 42
0.0
 70
0
  0
VERTEX
  5
54D
 100
AcDbEntity
  8
0
 100
AcDbVertex
 100
AcDb2dVertex
 10
6537990.19
 20
5571023.04
 42
0.0
 70
0
  0
VERTEX
  5
54E
 100
AcDbEntity
  8
0
 100
AcDbVertex
 100
AcDb2dVertex
 10
6537991.49
 20
5571027.38
 42
0.0
 70
0
  0
VERTEX
  5
54F
 100
AcDbEntity
  8
0
 100
AcDbVertex
 100
AcDb2dVertex
 10
6537991.92
 20
5571029.23
 42
0.0
 70
0
  0
SEQEND
  5
550
 100
AcDbEntity
  8
0
  0
MLINE
  5
551
 100
AcDbEntity
  8
murek oporowy (linia)
  6
450-1000
 62
7
 370
18
 100
AcDbMline
  2
450-1000
 340
3C
 40
1.0
 70
1
 71
1
 72
2
 73
2
 10
6537991.49
 20
5571027.38
 210
0.0
 220
0.0
 230
1.0
 11
6537991.49
 21
5571027.38
 12
-0.287
 22
-0.958
 13
0.958
 23
-0.287
 74
2
 41
0.35
 41
0.0
 75
0
 74
2
 41
-0.35
 41
0.0
 75
0
 11
6537990.19
 21
5571023.04
 12
-0.287
 22
-0.958
 13
0.958
 23
-0.287
 74
2
 41
0.35
 41
0.0
 75
0
 74
2
 41
-0.35
 41
0.0
 75
0
  0
POLYLINE
  5
552
 100
AcDbEntity
  8
bariera drogowa ochronna (linia)
  6
ok01_1000
 62
7
 370
18
 100
AcDb2dPolyline
 66
1
 10
0
 20
0
 70
128
  0
VERTEX
  5
553
 100
AcDbEntity
  8
0
 100
AcDbVertex
 100
AcDb2dVertex
 10
6537988.09
 20
5571030.62
 42
0.0
 70
0
  0
VERTEX
  5
554
 100
AcDbEntity
  8
0
 100
AcDbVertex
 100
AcDb2dVertex
 10
6537987.4
 20
5571028.77
 42
0.0
 70
0
  0
VERTEX
  5
555
 100
AcDbEntity
  8
0
 100
AcDbVertex
 100
AcDb2dVertex
 10
6537986.18
 20
5571025.56
 42
0.0
 70
0
  0
VERTEX
  5
556
 100
AcDbEntity
  8
0
 100
AcDbVertex
 100
AcDb2dVertex
 10
6537985.92
 20
5571024.51
 42
0.0
 70
0
  0
SEQEND
  5
557
 100
AcDbEntity
  8
0
  0
POLYLINE
  5
558
 100
AcDbEntity
  8
823-Szczyt skarpy nieumocninej
  6
823-1000
 62
7
 370
13
 100
AcDb2dPolyline
 66
1
 10
0
 20
0
 70
128
  0
VERTEX
  5
559
 100
AcDbEntity
  8
0
 100
AcDbVertex
 100
AcDb2dVertex
 10
6537988.34
 20
5571031.33
 42
0.0
 70
0
  0
VERTEX
  5
55A
 100
AcDbEntity
  8
0
 100
AcDbVertex
 100
AcDb2dVertex
 10
6537987.52
 20
5571029.62
 42
0.0
 70
0
  0
VERTEX
  5
55B
 100
AcDbEntity
  8
0
 100
AcDbVertex
 100
AcDb2dVertex
 10
6537986.96
 20
5571028.05
 42
0.0
 70
0
  0
SEQEND
  5
55C
 100
AcDbEntity
  8
0
  0
LINE
  5
55D
 100
AcDbEntity
  8
820-Skarpa nieumocniona
  6
CONTINUOUS
 62
7
 370
13
 100
AcDbLine
 10
6538011.51
 20
5571048.53
 11
6538014.23
 21
5571047.99
  0
LINE
  5
55E
 100
AcDbEntity
  8
820-Skarpa nieumocniona
  6
CONTINUOUS
 62
7
 370
13
 100
AcDbLine
 10
6538011.12
 20
5571046.57
 11
6538012.47
 21
5571046.3
  0
LINE
  5
55F
 100
AcDbEntity
  8
820-Skarpa nieumocniona
  6
CONTINUOUS
 62
7
 370
13
 100
AcDbLine
 10
6538010.73
 20
5571044.6
 11
6538013.43
 21
5571044.07
  0
LINE
  5
560
 100
AcDbEntity
  8
820-Skarpa nieumocniona
  6
CONTINUOUS
 62
7
 370
13
 100
AcDbLine
 10
6538010.34
 20
5571042.64
 11
6538011.68
 21
5571042.38
  0
LINE
  5
561
 100
AcDbEntity
  8
820-Skarpa nieumocniona
  6
CONTINUOUS
 62
7
 370
13
 100
AcDbLine
 10
6538009.95
 20
5571040.68
 11
6538012.62
 21
5571040.15
  0
LINE
  5
562
 100
AcDbEntity
  8
820-Skarpa nieumocniona
  6
CONTINUOUS
 62
7
 370
13
 100
AcDbLine
 10
6538009.57
 20
5571038.72
 11
6538010.89
 21
5571038.46
  0
LINE
  5
563
 100
AcDbEntity
  8
820-Skarpa nieumocniona
  6
CONTINUOUS
 62
7
 370
13
 100
AcDbLine
 10
6538009.18
 20
5571036.76
 11
6538011.81
 21
5571036.23
  0
LINE
  5
564
 100
AcDbEntity
  8
820-Skarpa nieumocniona
  6
CONTINUOUS
 62
7
 370
13
 100
AcDbLine
 10
6538008.79
 20
5571034.79
 11
6538010.1
 21
5571034.53
  0
LINE
  5
565
 100
AcDbEntity
  8
820-Skarpa nieumocniona
  6
CONTINUOUS
 62
7
 370
13
 100
AcDbLine
 10
6538008.64
 20
5571032.8
 11
6538011.11
 21
5571032.68
  0
LINE
  5
566
 100
AcDbEntity
  8
820-Skarpa nieumocniona
  6
CONTINUOUS
 62
7
 370
13
 100
AcDbLine
 10
6538008.54
 20
5571030.8
 11
6538009.65
 21
5571030.75
  0
LINE
  5
567
 100
AcDbEntity
  8
820-Skarpa nieumocniona
  6
CONTINUOUS
 62
7
 370
13
 100
AcDbLine
 10
6538008.44
 20
5571028.81
 11
6538010.41
 21
5571028.69
  0
LINE
  5
568
 100
AcDbEntity
  8
820-Skarpa nieumocniona
  6
CONTINUOUS
 62
7
 370
13
 100
AcDbLine
 10
6538008.19
 20
5571026.83
 11
6538009.1
 21
5571026.63
  0
LINE
  5
569
 100
AcDbEntity
  8
820-Skarpa nieumocniona
  6
CONTINUOUS
 62
7
 370
13
 100
AcDbLine
 10
6538007.77
 20
5571024.87
 11
6538009.67
 21
5571024.47
  0
LINE
  5
56A
 100
AcDbEntity
  8
820-Skarpa nieumocniona
  6
CONTINUOUS
 62
7
 370
13
 100
AcDbLine
 10
6538007.35
 20
5571022.92
 11
6538008.34
 21
5571022.71
  0
LINE
  5
56B
 100
AcDbEntity
  8
820-Skarpa nieumocniona
  6
CONTINUOUS
 62
7
 370
13
 100
AcDbLine
 10
6538006.94
 20
5571020.96
 11
6538008.98
 21
5571020.52
  0
LINE
  5
56C
 100
AcDbEntity
  8
820-Skarpa nieumocniona
  6
CONTINUOUS
 62
7
 370
13
 100
AcDbLine
 10
6538006.52
 20
5571019.0
 11
6538007.57
 21
5571018.78
  0
LINE
  5
56D
 100
AcDbEntity
  8
820-Skarpa nieumocniona
  6
CONTINUOUS
 62
7
 370
13
 100
AcDbLine
 10
6538006.1
 20
5571017.05
 11
6538008.28
 21
5571016.58
  0
LINE
  5
56E
 100
AcDbEntity
  8
820-Skarpa nieumocniona
  6
CONTINUOUS
 62
7
 370
13
 100
AcDbLine
 10
6538005.68
 20
5571015.09
 11
6538006.81
 21
5571014.85
  0
LINE
  5
56F
 100
AcDbEntity
  8
820-Skarpa nieumocniona
  6
CONTINUOUS
 62
7
 370
13
 100
AcDbLine
 10
6538005.27
 20
5571013.14
 11
6538007.59
 21
5571012.64
  0
LINE
  5
570
 100
AcDbEntity
  8
820-Skarpa nieumocniona
  6
CONTINUOUS
 62
7
 370
13
 100
AcDbLine
 10
6538004.83
 20
5571011.18
 11
6538005.98
 21
5571010.92
  0
LINE
  5
571
 100
AcDbEntity
  8
820-Skarpa nieumocniona
  6
CONTINUOUS
 62
7
 370
13
 100
AcDbLine
 10
6538004.38
 20
5571009.24
 11
6538006.62
 21
5571008.71
  0
LINE
  5
572
 100
AcDbEntity
  8
820-Skarpa nieumocniona
  6
CONTINUOUS
 62
7
 370
13
 100
AcDbLine
 10
6538003.92
 20
5571007.29
 11
6538005.01
 21
5571007.04
  0
LINE
  5
573
 100
AcDbEntity
  8
820-Skarpa nieumocniona
  6
CONTINUOUS
 62
7
 370
13
 100
AcDbLine
 10
6538003.47
 20
5571005.34
 11
6538005.58
 21
5571004.85
  0
LINE
  5
574
 100
AcDbEntity
  8
820-Skarpa nieumocniona
  6
CONTINUOUS
 62
7
 370
13
 100
AcDbLine
 10
6538003.02
 20
5571003.39
 11
6538004.04
 21
5571003.15
  0
LINE
  5
575
 100
AcDbEntity
  8
820-Skarpa nieumocniona
  6
CONTINUOUS
 62
7
 370
13
 100
AcDbLine
 10
6538002.56
 20
5571001.45
 11
6538004.55
 21
5571000.98
  0
LINE
  5
576
 100
AcDbEntity
  8
820-Skarpa nieumocniona
  6
CONTINUOUS
 62
7
 370
13
 100
AcDbLine
 10
6538002.37
 20
5570999.5
 11
6538003.32
 21
5570999.72
  0
LINE
  5
577
 100
AcDbEntity
  8
820-Skarpa nieumocniona
  6
CONTINUOUS
 62
7
 370
13
 100
AcDbLine
 10
6538002.83
 20
5570997.55
 11
6538004.65
 21
5570997.98
  0
LINE
  5
578
 100
AcDbEntity
  8
820-Skarpa nieumocniona
  6
CONTINUOUS
 62
7
 370
13
 100
AcDbLine
 10
6538003.28
 20
5570995.6
 11
6538004.23
 21
5570995.82
  0
LINE
  5
579
 100
AcDbEntity
  8
820-Skarpa nieumocniona
  6
CONTINUOUS
 62
7
 370
13
 100
AcDbLine
 10
6538003.74
 20
5570993.65
 11
6538005.72
 21
5570994.12
  0
TEXT
  5
57A
 100
AcDbEntity
  8
211-Nr działki
  6
CONTINUOUS
 62
7
 370
18
 100
AcDbText
 10
6537963.98
 20
5570994.86
 40
1.8
  1
998/242
 50
0.0
 41
0.9
 51
15.0
 72
0
 100
AcDbText
 73
0
  0
TEXT
  5
57B
 100
AcDbEntity
  8
211-Nr działki
  6
CONTINUOUS
 62
7
 370
18
 100
AcDbText
 10
6537931.96
 20
5571014.63
 40
1.8
  1
974/238
 50
0.0
 41
0.9
 51
15.0
 72
0
 100
AcDbText
 73
0
  0
TEXT
  5
57C
 100
AcDbEntity
  8
211-Nr działki
  6
CONTINUOUS
 62
7
 370
18
 100
AcDbText
 10
6537934.67
 20
5571032.06
 40
1.8
  1
989/239
 50
0.0
 41
0.9
 51
15.0
 72
0
 100
AcDbText
 73
0
  0
TEXT
  5
57D
 100
AcDbEntity
  8
211-Nr działki
  6
CONTINUOUS
 62
7
 370
18
 100
AcDbText
 10
6537942.46
 20
5571022.22
 40
1.8
  1
997/239
 50
0.0
 41
0.9
 51
15.0
 72
0
 100
AcDbText
 73
0
  0
TEXT
  5
57E
 100
AcDbEntity
  8
211-Nr działki
  6
CONTINUOUS
 62
7
 370
18
 100
AcDbText
 10
6537924.18
 20
5571025.13
 40
1.8
  1
1077/80
 50
0.0
 41
0.9
 51
15.0
 72
0
 100
AcDbText
 73
0
  0
TEXT
  5
57F
 100
AcDbEntity
  8
211-Nr działki
  6
CONTINUOUS
 62
7
 370
18
 100
AcDbText
 10
6537938.63
 20
5571061.82
 40
1.8
  1
1076/80
 50
0.0
 41
0.9
 51
15.0
 72
0
 100
AcDbText
 73
0
  0
TEXT
  5
580
 100
AcDbEntity
  8
211-Nr działki
  6
CONTINUOUS
 62
7
 370
18
 100
AcDbText
 10
6537942.58
 20
5571051.76
 40
1.8
  1
481/75
 50
0.0
 41
0.9
 51
15.0
 72
0
 100
AcDbText
 73
0
  0
TEXT
  5
581
 100
AcDbEntity
  8
211-Nr działki
  6
CONTINUOUS
 62
7
 370
18
 100
AcDbText
 10
6537940.06
 20
5571009.05
 40
1.8
  1
994/244
 50
0.0
 41
0.9
 51
15.0
 72
0
 100
AcDbText
 73
0
  0
TEXT
  5
582
 100
AcDbEntity
  8
209-Opis konturu klasyfikacyjnego
  6
CONTINUOUS
 62
3
 370
18
 100
AcDbText
 10
6537972.71
 20
5571054.77
 40
1.8
  1
ŁV
 50
0.0
 41
0.9
 51
15.0
 72
0
 100
AcDbText
 73
0
  0
TEXT
  5
583
 100
AcDbEntity
  8
210-Oznaczenie użytku
  6
CONTINUOUS
 62
3
 370
18
 100
AcDbText
 10
6537965.66
 20
5571003.65
 40
1.8
  1
B
 50
0.0
 41
0.9
 51
15.0
 72
0
 100
AcDbText
 73
0
  0
TEXT
  5
584
 100
AcDbEntity
  8
209-Opis konturu klasyfikacyjnego
  6
CONTINUOUS
 62
3
 370
18
 100
AcDbText
 10
6537973.65
 20
5571023.15
 40
1.8
  1
B
 50
0.0
 41
0.9
 51
15.0
 72
0
 100
AcDbText
 73
0
  0
TEXT
  5
585
 100
AcDbEntity
  8
209-Opis konturu klasyfikacyjnego
  6
CONTINUOUS
 62
3
 370
18
 100
AcDbText
 10
6537959.04
 20
5571038.34
 40
1.8
  1
W-ŁV
 50
0.0
 41
0.9
 51
15.0
 72
0
 100
AcDbText
 73
0
  0
TEXT
  5
586
 100
AcDbEntity
  8
211-Nr działki
  6
CONTINUOUS
 62
7
 370
18
 100
AcDbText
 10
6537962.97
 20
5571035.01
 40
1.8
  1
483/75
 50
0.0
 41
0.9
 51
15.0
 72
0
 100
AcDbText
 73
0
  0
TEXT
  5
587
 100
AcDbEntity
  8
211-Nr działki
  6
CONTINUOUS
 62
7
 370
18
 100
AcDbText
 10
6537954.71
 20
5571030.38
 40
1.8
  1
480/75
 50
0.0
 41
0.9
 51
15.0
 72
0
 100
AcDbText
 73
0
  0
TEXT
  5
588
 100
AcDbEntity
  8
211-Nr działki
  6
CONTINUOUS
 62
7
 370
18
 100
AcDbText
 10
6537927.76
 20
5571036.93
 40
1.8
  1
546/80
 50
0.0
 41
0.9
 51
15.0
 72
0
 100
AcDbText
 73
0
  0
TEXT
  5
589
 100
AcDbEntity
  8
209-Opis konturu klasyfikacyjnego
  6
CONTINUOUS
 62
3
 370
18
 100
AcDbText
 10
6537931.38
 20
5571012.24
 40
1.8
  1
PsV
 50
0.0
 41
0.9
 51
15.0
 72
0
 100
AcDbText
 73
0
  0
TEXT
  5
58A
 100
AcDbEntity
  8
209-Opis konturu klasyfikacyjnego
  6
CONTINUOUS
 62
3
 370
18
 100
AcDbText
 10
6537940.14
 20
5571028.64
 40
1.8
  1
RV
 50
0.0
 41
0.9
 51
15.0
 72
0
 100
AcDbText
 73
0
  0
TEXT
  5
58B
 100
AcDbEntity
  8
209-Opis konturu klasyfikacyjnego
  6
CONTINUOUS
 62
3
 370
18
 100
AcDbText
 10
6537938.73
 20
5571024.8
 40
1.8
  1
W-ŁV
 50
0.0
 41
0.9
 51
15.0
 72
0
 100
AcDbText
 73
0
  0
POLYLINE
  5
58C
 100
AcDbEntity
  8
219-Linia granicy
  6
219-1000
 62
7
 370
13
 100
AcDb2dPolyline
 66
1
 10
0
 20
0
 70
128
  0
VERTEX
  5
58D
 100
AcDbEntity
  8
0
 100
AcDbVertex
 100
AcDb2dVertex
 10
6537948.56
 20
5571037.44
 42
0.0
 70
0
  0
VERTEX
  5
58E
 100
AcDbEntity
  8
0
 100
AcDbVertex
 100
AcDb2dVertex
 10
6537954.27
 20
5571027.26
 42
0.0
 70
0
  0
SEQEND
  5
58F
 100
AcDbEntity
  8
0
  0
POLYLINE
  5
590
 100
AcDbEntity
  8
219-Linia granicy
  6
219-1000
 62
7
 370
13
 100
AcDb2dPolyline
 66
1
 10
0
 20
0
 70
128
  0
VERTEX
  5
591
 100
AcDbEntity
  8
0
 100
AcDbVertex
 100
AcDb2dVertex
 10
6537950.93
 20
5571025.39
 42
0.0
 70
0
  0
VERTEX
  5
592
 100
AcDbEntity
  8
0
 100
AcDbVertex
 100
AcDb2dVertex
 10
6537944.86
 20
5571036.21
 42
0.0
 70
0
  0
SEQEND
  5
593
 100
AcDbEntity
  8
0
  0
INSERT
  5
594
 100
AcDbEntity
  8
brama (linia) - symbol
  6
CONTINUOUS
 62
7
 370
18
 100
AcDbBlockReference
 66
0
  2
OK02
 10
6537956.625
 20
5571019.655
 50
8.171
 41
1.0
 42
1.0
  0
POLYLINE
  5
595
 100
AcDbEntity
  8
brama (linia)
  6
ktok02-1000
 62
7
 370
18
 100
AcDb2dPolyline
 66
1
 10
0
 20
0
 70
128
  0
VERTEX
  5
596
 100
AcDbEntity
  8
0
 100
AcDbVertex
 100
AcDb2dVertex
 10
6537954.64
 20
5571019.37
 42
0.0
 70
0
  0
VERTEX
  5
597
 100
AcDbEntity
  8
0
 100
AcDbVertex
 100
AcDb2dVertex
 10
6537958.61
 20
5571019.94
 42
0.0
 70
0
  0
SEQEND
  5
598
 100
AcDbEntity
  8
0
  0
POLYLINE
  5
599
 100
AcDbEntity
  8
000 Inne (niezydentyfikowane)
  6
CONTINUOUS
 62
1
 370
25
 100
AcDb2dPolyline
 66
1
 10
0
 20
0
 70
128
  0
VERTEX
  5
59A
 100
AcDbEntity
  8
0
 100
AcDbVertex
 100
AcDb2dVertex
 10
6537981.18
 20
5571026.46
 42
0.0
 70
0
  0
VERTEX
  5
59B
 100
AcDbEntity
  8
0
 100
AcDbVertex
 100
AcDb2dVertex
 10
6537980.98
 20
5571024.8
 42
0.0
 70
0
  0
VERTEX
  5
59C
 100
AcDbEntity
  8
0
 100
AcDbVertex
 100
AcDb2dVertex
 10
6537983.45
 20
5571021.28
 42
0.0
 70
0
  0
SEQEND
  5
59D
 100
AcDbEntity
  8
0
  0
POLYLINE
  5
59E
 100
AcDbEntity
  8
218-Granica użytku
  6
218-1000
 62
3
 370
13
 100
AcDb2dPolyline
 66
1
 10
0
 20
0
 70
128
  0
VERTEX
  5
59F
 100
AcDbEntity
  8
0
 100
AcDbVertex
 100
AcDb2dVertex
 10
6537980.73
 20
5571026.6
 42
0.0
 70
0
  0
VERTEX
  5
5A0
 100
AcDbEntity
  8
0
 100
AcDbVertex
 100
AcDb2dVertex
 10
6537980.52
 20
5571024.69
 42
0.0
 70
0
  0
SEQEND
  5
5A1
 100
AcDbEntity
  8
0
  0
POLYLINE
  5
5A2
 100
AcDbEntity
  8
218-Granica użytku
  6
218-1000
 62
3
 370
13
 100
AcDb2dPolyline
 66
1
 10
0
 20
0
 70
128
  0
VERTEX
  5
5A3
 100
AcDbEntity
  8
0
 100
AcDbVertex
 100
AcDb2dVertex
 10
6537980.52
 20
5571024.69
 42
0.0
 70
0
  0
VERTEX
  5
5A4
 100
AcDbEntity
  8
0
 100
AcDbVertex
 100
AcDb2dVertex
 10
6537982.84
 20
5571021.24
 42
0.0
 70
0
  0
SEQEND
  5
5A5
 100
AcDbEntity
  8
0
  0
TEXT
  5
5A6
 100
AcDbEntity
  8
996-Tekst dodatkowy mały
  6
CONTINUOUS
 62
1
 370
18
 100
AcDbText
 10
6537973.835
 20
5571036.54
 40
1.8
  1
1140/75
 50
0.0
 41
0.9
 51
15.0
 72
0
 100
AcDbText
 73
0
  0
POLYLINE
  5
5A7
 100
AcDbEntity
  8
996-Tekst dodatkowy mały
  6
CONTINUOUS
 62
0
 370
18
 100
AcDb2dPolyline
 66
1
 10
0
 20
0
 70
128
  0
VERTEX
  5
5A8
 100
AcDbEntity
  8
0
 100
AcDbVertex
 100
AcDb2dVertex
 10
6537982.42
 20
5571024.31
 42
0.0
 70
0
  0
VERTEX
  5
5A9
 100
AcDbEntity
  8
0
 100
AcDbVertex
 100
AcDb2dVertex
 10
6537982.17
 20
5571036.18
 42
0.0
 70
0
  0
VERTEX
  5
5AA
 100
AcDbEntity
  8
0
 100
AcDbVertex
 100
AcDb2dVertex
 10
6537973.835
 20
5571036.18
 42
0.0
 70
0
  0
SEQEND
  5
5AB
 100
AcDbEntity
  8
0
  0
TEXT
  5
5AC
 100
AcDbEntity
  8
996-Tekst dodatkowy mały
  6
CONTINUOUS
 62
1
 370
18
 100
AcDbText
 10
6537951.91
 20
5571035.15
 40
1.8
  1
1141/75
 50
0.0
 41
0.9
 51
15.0
 72
0
 100
AcDbText
 73
0
  0
TEXT
  5
5AD
 100
AcDbEntity
  8
210-Oznaczenie użytku
  6
CONTINUOUS
 62
3
 370
18
 100
AcDbText
 10
6537981.39
 20
5571023.59
 40
1.8
  1
Tp
 50
0.0
 41
0.9
 51
15.0
 72
0
 100
AcDbText
 73
0
  0
POLYLINE
  5
5AE
 100
AcDbEntity
  8
Pieczątka na wyrysie
  6
CONTINUOUS
 62
1
 370
25
 100
AcDb2dPolyline
 66
1
 10
0
 20
0
 70
128
  0
VERTEX
  5
5AF
 100
AcDbEntity
  8
0
 100
AcDbVertex
 100
AcDb2dVertex
 10
6537953.86
 20
5571031.14
 42
0.0
 70
0
  0
VERTEX
  5
5B0
 100
AcDbEntity
  8
0
 100
AcDbVertex
 100
AcDb2dVertex
 10
6537964.01
 20
5571031.17
 42
0.0
 70
0
  0
SEQEND
  5
5B1
 100
AcDbEntity
  8
0
  0
TEXT
  5
5B2
 100
AcDbEntity
  8
996-Tekst dodatkowy mały
  6
CONTINUOUS
 62
1
 370
18
 100
AcDbText
 10
6537973.51
 20
5571033.99
 40
1.44
  1
0.0012 ha
 50
0.0
 41
0.9
 51
15.0
 72
0
 100
AcDbText
 73
0
  0
TEXT
  5
5B3
 100
AcDbEntity
  8
996-Tekst dodatkowy mały
  6
CONTINUOUS
 62
1
 370
18
 100
AcDbText
 10
6537952.2
 20
5571033.17
 40
1.44
  1
0.0508 ha
 50
0.0
 41
0.9
 51
15.0
 72
0
 100
AcDbText
 73
0
  0
TEXT
  5
5B4
 100
AcDbEntity
  8
996-Tekst dodatkowy mały
  6
CONTINUOUS
 62
7
 370
18
 100
AcDbText
 10
6537953.18
 20
5571028.58
 40
1.152
  1
GL1G/00016382/3
 50
0.0
 41
0.9
 51
15.0
 72
0
 100
AcDbText
 73
0
  0
POLYLINE
  5
5B5
 100
AcDbEntity
  8
824-Podnóże skarpy nieumocninej
  6
823-1000
 62
7
 370
13
 100
AcDb2dPolyline
 66
1
 10
0
 20
0
 70
128
  0
VERTEX
  5
5B6
 100
AcDbEntity
  8
0
 100
AcDbVertex
 100
AcDb2dVertex
 10
6537924.07
 20
5571039.133
 42
0.0
 70
0
  0
VERTEX
  5
5B7
 100
AcDbEntity
  8
0
 100
AcDbVertex
 100
AcDb2dVertex
 10
6537935.43
 20
5571041.93
 42
0.0
 70
0
  0
VERTEX
  5
5B8
 100
AcDbEntity
  8
0
 100
AcDbVertex
 100
AcDb2dVertex
 10
6537949.25
 20
5571042.23
 42
0.0
 70
0
  0
SEQEND
  5
5B9
 100
AcDbEntity
  8
0
  0
POLYLINE
  5
5BA
 100
AcDbEntity
  8
823-Szczyt skarpy nieumocninej
  6
823-1000
 62
7
 370
13
 100
AcDb2dPolyline
 66
1
 10
0
 20
0
 70
128
  0
VERTEX
  5
5BB
 100
AcDbEntity
  8
0
 100
AcDbVertex
 100
AcDb2dVertex
 10
6537924.07
 20
5571040.771
 42
0.0
 70
0
  0
VERTEX
  5
5BC
 100
AcDbEntity
  8
0
 100
AcDbVertex
 100
AcDb2dVertex
 10
6537944.34
 20
5571044.69
 42
0.0
 70
0
  0
SEQEND
  5
5BD
 100
AcDbEntity
  8
0
  0
LINE
  5
5BE
 100
AcDbEntity
  8
820-Skarpa nieumocniona
  6
CONTINUOUS
 62
7
 370
13
 100
AcDbLine
 10
6537924.14
 20
5571040.78
 11
6537924.44
 21
5571039.22
  0
LINE
  5
5BF
 100
AcDbEntity
  8
820-Skarpa nieumocniona
  6
CONTINUOUS
 62
7
 370
13
 100
AcDbLine
 10
6537925.12
 20
5571040.97
 11
6537925.27
 21
5571040.22
  0
LINE
  5
5C0
 100
AcDbEntity
  8
820-Skarpa nieumocniona
  6
CONTINUOUS
 62
7
 370
13
 100
AcDbLine
 10
6537926.1
 20
5571041.16
 11
6537926.39
 21
5571039.7
  0
LINE
  5
5C1
 100
AcDbEntity
  8
820-Skarpa nieumocniona
  6
CONTINUOUS
 62
7
 370
13
 100
AcDbLine
 10
6537927.09
 20
5571041.35
 11
6537927.22
 21
5571040.65
  0
LINE
  5
5C2
 100
AcDbEntity
  8
820-Skarpa nieumocniona
  6
CONTINUOUS
 62
7
 370
13
 100
AcDbLine
 10
6537928.07
 20
5571041.54
 11
6537928.33
 21
5571040.18
  0
LINE
  5
5C3
 100
AcDbEntity
  8
820-Skarpa nieumocniona
  6
CONTINUOUS
 62
7
 370
13
 100
AcDbLine
 10
6537929.05
 20
5571041.73
 11
6537929.18
 21
5571041.08
  0
LINE
  5
5C4
 100
AcDbEntity
  8
820-Skarpa nieumocniona
  6
CONTINUOUS
 62
7
 370
13
 100
AcDbLine
 10
6537930.03
 20
5571041.92
 11
6537930.28
 21
5571040.66
  0
LINE
  5
5C5
 100
AcDbEntity
  8
820-Skarpa nieumocniona
  6
CONTINUOUS
 62
7
 370
13
 100
AcDbLine
 10
6537931.01
 20
5571042.11
 11
6537931.13
 21
5571041.51
  0
LINE
  5
5C6
 100
AcDbEntity
  8
820-Skarpa nieumocniona
  6
CONTINUOUS
 62
7
 370
13
 100
AcDbLine
 10
6537932.0
 20
5571042.3
 11
6537932.22
 21
5571041.14
  0
LINE
  5
5C7
 100
AcDbEntity
  8
820-Skarpa nieumocniona
  6
CONTINUOUS
 62
7
 370
13
 100
AcDbLine
 10
6537932.98
 20
5571042.49
 11
6537933.08
 21
5571041.94
  0
LINE
  5
5C8
 100
AcDbEntity
  8
820-Skarpa nieumocniona
  6
CONTINUOUS
 62
7
 370
13
 100
AcDbLine
 10
6537933.96
 20
5571042.68
 11
6537934.16
 21
5571041.62
  0
LINE
  5
5C9
 100
AcDbEntity
  8
820-Skarpa nieumocniona
  6
CONTINUOUS
 62
7
 370
13
 100
AcDbLine
 10
6537934.94
 20
5571042.87
 11
6537935.04
 21
5571042.37
  0
LINE
  5
5CA
 100
AcDbEntity
  8
820-Skarpa nieumocniona
  6
CONTINUOUS
 62
7
 370
13
 100
AcDbLine
 10
6537935.92
 20
5571043.06
 11
6537936.14
 21
5571041.95
  0
LINE
  5
5CB
 100
AcDbEntity
  8
820-Skarpa nieumocniona
  6
CONTINUOUS
 62
7
 370
13
 100
AcDbLine
 10
6537936.9
 20
5571043.25
 11
6537937.03
 21
5571042.61
  0
LINE
  5
5CC
 100
AcDbEntity
  8
820-Skarpa nieumocniona
  6
CONTINUOUS
 62
7
 370
13
 100
AcDbLine
 10
6537937.89
 20
5571043.44
 11
6537938.17
 21
5571041.99
  0
LINE
  5
5CD
 100
AcDbEntity
  8
820-Skarpa nieumocniona
  6
CONTINUOUS
 62
7
 370
13
 100
AcDbLine
 10
6537938.87
 20
5571043.63
 11
6537939.02
 21
5571042.82
  0
LINE
  5
5CE
 100
AcDbEntity
  8
820-Skarpa nieumocniona
  6
CONTINUOUS
 62
7
 370
13
 100
AcDbLine
 10
6537939.85
 20
5571043.82
 11
6537940.2
 21
5571042.03
  0
LINE
  5
5CF
 100
AcDbEntity
  8
820-Skarpa nieumocniona
  6
CONTINUOUS
 62
7
 370
13
 100
AcDbLine
 10
6537940.83
 20
5571044.01
 11
6537941.02
 21
5571043.03
  0
LINE
  5
5D0
 100
AcDbEntity
  8
820-Skarpa nieumocniona
  6
CONTINUOUS
 62
7
 370
13
 100
AcDbLine
 10
6537941.81
 20
5571044.2
 11
6537942.22
 21
5571042.08
  0
LINE
  5
5D1
 100
AcDbEntity
  8
820-Skarpa nieumocniona
  6
CONTINUOUS
 62
7
 370
13
 100
AcDbLine
 10
6537942.8
 20
5571044.39
 11
6537943.02
 21
5571043.25
  0
LINE
  5
5D2
 100
AcDbEntity
  8
820-Skarpa nieumocniona
  6
CONTINUOUS
 62
7
 370
13
 100
AcDbLine
 10
6537943.78
 20
5571044.58
 11
6537944.25
 21
5571042.12
  0
POLYLINE
  5
5D3
 100
AcDbEntity
  8
219-Linia granicy
  6
219-1000
 62
7
 370
13
 100
AcDb2dPolyline
 66
1
 10
0
 20
0
 70
128
  0
VERTEX
  5
5D4
 100
AcDbEntity
  8
0
 100
AcDbVertex
 100
AcDb2dVertex
 10
6537970.92
 20
5571018.59
 42
0.0
 70
0
  0
VERTEX
  5
5D5
 100
AcDbEntity
  8
0
 100
AcDbVertex
 100
AcDb2dVertex
 10
6537966.13
 20
5571017.68
 42
0.0
 70
0
  0
SEQEND
  5
5D6
 100
AcDbEntity
  8
0
  0
POLYLINE
  5
5D7
 100
AcDbEntity
  8
219-Linia granicy
  6
219-1000
 62
7
 370
13
 100
AcDb2dPolyline
 66
1
 10
0
 20
0
 70
128
  0
VERTEX
  5
5D8
 100
AcDbEntity
  8
0
 100
AcDbVertex
 100
AcDb2dVertex
 10
6537977.38
 20
5571019.53
 42
0.0
 70
0
  0
VERTEX
  5
5D9
 100
AcDbEntity
  8
0
 100
AcDbVertex
 100
AcDb2dVertex
 10
6537970.92
 20
5571018.59
 42
0.0
 70
0
  0
SEQEND
  5
5DA
 100
AcDbEntity
  8
0
  0
POLYLINE
  5
5DB
 100
AcDbEntity
  8
219-Linia granicy
  6
219-1000
 62
7
 370
13
 100
AcDb2dPolyline
 66
1
 10
0
 20
0
 70
128
  0
VERTEX
  5
5DC
 100
AcDbEntity
  8
0
 100
AcDbVertex
 100
AcDb2dVertex
 10
6537966.13
 20
5571017.68
 42
0.0
 70
0
  0
VERTEX
  5
5DD
 100
AcDbEntity
  8
0
 100
AcDbVertex
 100
AcDb2dVertex
 10
6537962.15
 20
5571017.48
 42
0.0
 70
0
  0
SEQEND
  5
5DE
 100
AcDbEntity
  8
0
  0
POLYLINE
  5
5DF
 100
AcDbEntity
  8
219-Linia granicy
  6
219-1000
 62
7
 370
13
 100
AcDb2dPolyline
 66
1
 10
0
 20
0
 70
128
  0
VERTEX
  5
5E0
 100
AcDbEntity
  8
0
 100
AcDbVertex
 100
AcDb2dVertex
 10
6537962.15
 20
5571017.48
 42
0.0
 70
0
  0
VERTEX
  5
5E1
 100
AcDbEntity
  8
0
 100
AcDbVertex
 100
AcDb2dVertex
 10
6537954.05
 20
5571017.75
 42
0.0
 70
0
  0
SEQEND
  5
5E2
 100
AcDbEntity
  8
0
  0
POLYLINE
  5
5E3
 100
AcDbEntity
  8
219-Linia granicy
  6
219-1000
 62
7
 370
13
 100
AcDb2dPolyline
 66
1
 10
0
 20
0
 70
128
  0
VERTEX
  5
5E4
 100
AcDbEntity
  8
0
 100
AcDbVertex
 100
AcDb2dVertex
 10
6537944.82
 20
5571033.98
 42
0.0
 70
0
  0
VERTEX
  5
5E5
 100
AcDbEntity
  8
0
 100
AcDbVertex
 100
AcDb2dVertex
 10
6537942.69
 20
5571036.78
 42
0.0
 70
0
  0
SEQEND
  5
5E6
 100
AcDbEntity
  8
0
  0
INSERT
  5
5E7
 100
AcDbEntity
  8
202-Punkt graniczny stabilizowany trwale
  6
CONTINUOUS
 62
7
 370
13
 100
AcDbBlockReference
 66
0
  2
202
 10
6537944.82
 20
5571033.98
 50
0.0
 41
1.0
 42
1.0
  0
INSERT
  5
5E8
 100
AcDbEntity
  8
203-Punkt załamania granicy działki nie stabilizowany
  6
CONTINUOUS
 62
7
 370
13
 100
AcDbBlockReference
 66
0
  2
203
 10
6537962.15
 20
5571017.48
 50
0.0
 41
1.0
 42
1.0
  0
INSERT
  5
5E9
 100
AcDbEntity
  8
203-Punkt załamania granicy działki nie stabilizowany
  6
CONTINUOUS
 62
7
 370
13
 100
AcDbBlockReference
 66
0
  2
203
 10
6537966.13
 20
5571017.68
 50
0.0
 41
1.0
 42
1.0
  0
INSERT
  5
5EA
 100
AcDbEntity
  8
203-Punkt załamania granicy działki nie stabilizowany
  6
CONTINUOUS
 62
7
 370
13
 100
AcDbBlockReference
 66
0
  2
203
 10
6537970.92
 20
5571018.59
 50
0.0
 41
1.0
 42
1.0
  0
INSERT
  5
5EB
 100
AcDbEntity
  8
203-Punkt załamania granicy działki nie stabilizowany
  6
CONTINUOUS
 62
7
 370
13
 100
AcDbBlockReference
 66
0
  2
203
 10
6537977.38
 20
5571019.53
 50
0.0
 41
1.0
 42
1.0
  0
INSERT
  5
5EC
 100
AcDbEntity
  8
203-Punkt załamania granicy działki nie stabilizowany
  6
CONTINUOUS
 62
7
 370
13
 100
AcDbBlockReference
 66
0
  2
203
 10
6537948.66
 20
5571037.32
 50
0.0
 41
1.0
 42
1.0
  0
POLYLINE
  5
5ED
 100
AcDbEntity
  8
000 Inne (niezydentyfikowane)
  6
CONTINUOUS
 62
1
 370
50
 100
AcDb2dPolyline
 66
1
 10
0
 20
0
 70
129
  0
VERTEX
  5
5EE
 100
AcDbEntity
  8
0
 100
AcDbVertex
 100
AcDb2dVertex
 10
6537983.45
 20
5571021.28
 42
0.0
 70
0
  0
VERTEX
  5
5EF
 100
AcDbEntity
  8
0
 100
AcDbVertex
 100
AcDb2dVertex
 10
6537977.38
 20
5571019.53
 42
0.0
 70
0
  0
VERTEX
  5
5F0
 100
AcDbEntity
  8
0
 100
AcDbVertex
 100
AcDb2dVertex
 10
6537970.92
 20
5571018.59
 42
0.0
 70
0
  0
VERTEX
  5
5F1
 100
AcDbEntity
  8
0
 100
AcDbVertex
 100
AcDb2dVertex
 10
6537966.13
 20
5571017.68
 42
0.0
 70
0
  0
VERTEX
  5
5F2
 100
AcDbEntity
  8
0
 100
AcDbVertex
 100
AcDb2dVertex
 10
6537962.15
 20
5571017.48
 42
0.0
 70
0
  0
VERTEX
  5
5F3
 100
AcDbEntity
  8
0
 100
AcDbVertex
 100
AcDb2dVertex
 10
6537954.05
 20
5571017.75
 42
0.0
 70
0
  0
VERTEX
  5
5F4
 100
AcDbEntity
  8
0
 100
AcDbVertex
 100
AcDb2dVertex
 10
6537944.82
 20
5571033.98
 42
0.0
 70
0
  0
VERTEX
  5
5F5
 100
AcDbEntity
  8
0
 100
AcDbVertex
 100
AcDb2dVertex
 10
6537942.69
 20
5571036.78
 42
0.0
 70
0
  0
VERTEX
  5
5F6
 100
AcDbEntity
  8
0
 100
AcDbVertex
 100
AcDb2dVertex
 10
6537948.66
 20
5571037.32
 42
0.0
 70
0
  0
VERTEX
  5
5F7
 100
AcDbEntity
  8
0
 100
AcDbVertex
 100
AcDb2dVertex
 10
6537950.73
 20
5571040.75
 42
0.0
 70
0
  0
VERTEX
  5
5F8
 100
AcDbEntity
  8
0
 100
AcDbVertex
 100
AcDb2dVertex
 10
6537954.39
 20
5571041.63
 42
0.0
 70
0
  0
VERTEX
  5
5F9
 100
AcDbEntity
  8
0
 100
AcDbVertex
 100
AcDb2dVertex
 10
6537966.84
 20
5571030.97
 42
0.0
 70
0
  0
VERTEX
  5
5FA
 100
AcDbEntity
  8
0
 100
AcDbVertex
 100
AcDb2dVertex
 10
6537985.49
 20
5571025.1
 42
0.0
 70
0
  0
SEQEND
  5
5FB
 100
AcDbEntity
  8
0
  0
POLYLINE
  5
5FC
 100
AcDbEntity
  8
Prezentacja działek
  6
219-500
 62
1
 370
35
 100
AcDb2dPolyline
 66
1
 10
0
 20
0
 70
128
  0
VERTEX
  5
5FD
 100
AcDbEntity
  8
0
 100
AcDbVertex
 100
AcDb2dVertex
 10
6537987.28
 20
5571008.63
 42
0.0
 70
0
  0
VERTEX
  5
5FE
 100
AcDbEntity
  8
0
 100
AcDbVertex
 100
AcDb2dVertex
 10
6537989.22
 20
5571000.85
 42
0.0
 70
0
  0
VERTEX
  5
5FF
 100
AcDbEntity
  8
0
 100
AcDbVertex
 100
AcDb2dVertex
 10
6537994.81
 20
5570994.3
 42
0.0
 70
0
  0
VERTEX
  5
600
 100
AcDbEntity
  8
0
 100
AcDbVertex
 100
AcDb2dVertex
 10
6537996.919
 20
5570993.04
 42
0.0
 70
0
  0
SEQEND
  5
601
 100
AcDbEntity
  8
0
  0
POLYLINE
  5
602
 100
AcDbEntity
  8
Prezentacja działek
  6
219-500
 62
1
 370
35
 100
AcDb2dPolyline
 66
1
 10
0
 20
0
 70
128
  0
VERTEX
  5
603
 100
AcDbEntity
  8
0
 100
AcDbVertex
 100
AcDb2dVertex
 10
6538021.28
 20
5571077.232
 42
0.0
 70
0
  0
VERTEX
  5
604
 100
AcDbEntity
  8
0
 100
AcDbVertex
 100
AcDb2dVertex
 10
6537990.43
 20
5571024.98
 42
0.0
 70
0
  0
VERTEX
  5
605
 100
AcDbEntity
  8
0
 100
AcDbVertex
 100
AcDb2dVertex
 10
6537987.54
 20
5571013.47
 42
0.0
 70
0
  0
VERTEX
  5
606
 100
AcDbEntity
  8
0
 100
AcDbVertex
 100
AcDb2dVertex
 10
6537987.28
 20
5571008.63
 42
0.0
 70
0
  0
SEQEND
  5
607
 100
AcDbEntity
  8
0
  0
POLYLINE
  5
608
 100
AcDbEntity
  8
951-Rów nie stanowiący działki
  6
0.7_0.7
 62
7
 370
13
 100
AcDb2dPolyline
 66
1
 10
0
 20
0
 70
128
  0
VERTEX
  5
609
 100
AcDbEntity
  8
0
 100
AcDbVertex
 100
AcDb2dVertex
 10
6538011.57
 20
5571016.15
 42
0.0
 70
0
  0
VERTEX
  5
60A
 100
AcDbEntity
  8
0
 100
AcDbVertex
 100
AcDb2dVertex
 10
6538012.58
 20
5571018.44
 42
0.0
 70
0
  0
VERTEX
  5
60B
 100
AcDbEntity
  8
0
 100
AcDbVertex
 100
AcDb2dVertex
 10
6538021.28
 20
5571016.826
 42
0.0
 70
0
  0
SEQEND
  5
60C
 100
AcDbEntity
  8
0
  0
POLYLINE
  5
60D
 100
AcDbEntity
  8
951-Rów nie stanowiący działki
  6
0.7_0.7
 62
7
 370
13
 100
AcDb2dPolyline
 66
1
 10
0
 20
0
 70
128
  0
VERTEX
  5
60E
 100
AcDbEntity
  8
0
 100
AcDbVertex
 100
AcDb2dVertex
 10
6538021.28
 20
5571014.298
 42
0.0
 70
0
  0
VERTEX
  5
60F
 100
AcDbEntity
  8
0
 100
AcDbVertex
 100
AcDb2dVertex
 10
6538011.57
 20
5571016.15
 42
0.0
 70
0
  0
SEQEND
  5
610
 100
AcDbEntity
  8
0
  0
LINE
  5
611
 100
AcDbEntity
  8
000 Inne (niezydentyfikowane)
  6
CONTINUOUS
 62
7
 370
13
 100
AcDbLine
 10
6538012.43
 20
5571051.84
 11
6538015.17
 21
5571049.36
  0
LINE
  5
612
 100
AcDbEntity
  8
000 Inne (niezydentyfikowane)
  6
CONTINUOUS
 62
7
 370
13
 100
AcDbLine
 10
6538013.21
 20
5571052.71
 11
6538014.6
 21
5571051.46
  0
LINE
  5
613
 100
AcDbEntity
  8
000 Inne (niezydentyfikowane)
  6
CONTINUOUS
 62
7
 370
13
 100
AcDbLine
 10
6538014.04
 20
5571053.62
 11
6538016.85
 21
5571051.08
  0
LINE
  5
614
 100
AcDbEntity
  8
000 Inne (niezydentyfikowane)
  6
CONTINUOUS
 62
7
 370
13
 100
AcDbLine
 10
6538014.88
 20
5571054.56
 11
6538016.3
 21
5571053.27
  0
LINE
  5
615
 100
AcDbEntity
  8
000 Inne (niezydentyfikowane)
  6
CONTINUOUS
 62
7
 370
13
 100
AcDbLine
 10
6538015.73
 20
5571055.5
 11
6538018.8
 21
5571053.08
  0
LINE
  5
616
 100
AcDbEntity
  8
000 Inne (niezydentyfikowane)
  6
CONTINUOUS
 62
7
 370
13
 100
AcDbLine
 10
6538016.53
 20
5571056.52
 11
6538018.07
 21
5571055.31
  0
LINE
  5
617
 100
AcDbEntity
  8
000 Inne (niezydentyfikowane)
  6
CONTINUOUS
 62
7
 370
13
 100
AcDbLine
 10
6538017.34
 20
5571057.54
 11
6538020.38
 21
5571055.14
  0
LINE
  5
618
 100
AcDbEntity
  8
000 Inne (niezydentyfikowane)
  6
CONTINUOUS
 62
7
 370
13
 100
AcDbLine
 10
6538018.14
 20
5571058.55
 11
6538019.65
 21
5571057.36
  0
LINE
  5
619
 100
AcDbEntity
  8
000 Inne (niezydentyfikowane)
  6
CONTINUOUS
 62
7
 370
13
 100
AcDbLine
 10
6538018.94
 20
5571059.56
 11
6538021.28
 21
5571057.711
  0
LINE
  5
61A
 100
AcDbEntity
  8
000 Inne (niezydentyfikowane)
  6
CONTINUOUS
 62
7
 370
13
 100
AcDbLine
 10
6538019.73
 20
5571060.56
 11
6538021.22
 21
5571059.39
  0
LINE
  5
61B
 100
AcDbEntity
  8
000 Inne (niezydentyfikowane)
  6
CONTINUOUS
 62
7
 370
13
 100
AcDbLine
 10
6538020.52
 20
5571061.56
 11
6538021.28
 21
5571060.957
  0
POLYLINE
  5
61C
 100
AcDbEntity
  8
skarpa nieumocniona (powierzchnia)
  6
mz1.8_0.7
 62
7
 370
18
 100
AcDb2dPolyline
 66
1
 10
0
 20
0
 70
129
  0
VERTEX
  5
61D
 100
AcDbEntity
  8
0
 100
AcDbVertex
 100
AcDb2dVertex
 10
6538021.28
 20
5571056.32
 42
0.0
 70
0
  0
VERTEX
  5
61E
 100
AcDbEntity
  8
0
 100
AcDbVertex
 100
AcDb2dVertex
 10
6538018.91
 20
5571053.19
 42
0.0
 70
0
  0
VERTEX
  5
61F
 100
AcDbEntity
  8
0
 100
AcDbVertex
 100
AcDb2dVertex
 10
6538014.47
 20
5571048.65
 42
0.0
 70
0
  0
VERTEX
  5
620
 100
AcDbEntity
  8
0
 100
AcDbVertex
 100
AcDb2dVertex
 10
6538012.09
 20
5571051.47
 42
0.0
 70
0
  0
VERTEX
  5
621
 100
AcDbEntity
  8
0
 100
AcDbVertex
 100
AcDb2dVertex
 10
6538015.73
 20
5571055.5
 42
0.0
 70
0
  0
VERTEX
  5
622
 100
AcDbEntity
  8
0
 100
AcDbVertex
 100
AcDb2dVertex
 10
6538021.28
 20
5571062.53
 42
0.0
 70
0
  0
SEQEND
  5
623
 100
AcDbEntity
  8
0
  0
LINE
  5
624
 100
AcDbEntity
  8
000 Inne (niezydentyfikowane)
  6
CONTINUOUS
 62
7
 370
13
 100
AcDbLine
 10
6537991.94
 20
5571027.6
 11
6537992.56
 21
5571026.33
  0
LINE
  5
625
 100
AcDbEntity
  8
000 Inne (niezydentyfikowane)
  6
CONTINUOUS
 62
7
 370
13
 100
AcDbLine
 10
6537992.48
 20
5571027.86
 11
6537992.79
 21
5571027.23
  0
LINE
  5
626
 100
AcDbEntity
  8
000 Inne (niezydentyfikowane)
  6
CONTINUOUS
 62
7
 370
13
 100
AcDbLine
 10
6537992.92
 20
5571028.1
 11
6537994.26
 21
5571027.15
  0
LINE
  5
627
 100
AcDbEntity
  8
000 Inne (niezydentyfikowane)
  6
CONTINUOUS
 62
7
 370
13
 100
AcDbLine
 10
6537993.23
 20
5571028.54
 11
6537993.95
 21
5571028.03
  0
LINE
  5
628
 100
AcDbEntity
  8
000 Inne (niezydentyfikowane)
  6
CONTINUOUS
 62
7
 370
13
 100
AcDbLine
 10
6537993.56
 20
5571029.01
 11
6537994.97
 21
5571028.01
  0
LINE
  5
629
 100
AcDbEntity
  8
000 Inne (niezydentyfikowane)
  6
CONTINUOUS
 62
7
 370
13
 100
AcDbLine
 10
6537993.9
 20
5571029.48
 11
6537994.59
 21
5571028.99
  0
LINE
  5
62A
 100
AcDbEntity
  8
000 Inne (niezydentyfikowane)
  6
CONTINUOUS
 62
7
 370
13
 100
AcDbLine
 10
6537994.22
 20
5571029.94
 11
6537995.58
 21
5571028.98
  0
LINE
  5
62B
 100
AcDbEntity
  8
000 Inne (niezydentyfikowane)
  6
CONTINUOUS
 62
7
 370
13
 100
AcDbLine
 10
6537994.55
 20
5571030.39
 11
6537995.21
 21
5571029.92
  0
LINE
  5
62C
 100
AcDbEntity
  8
000 Inne (niezydentyfikowane)
  6
CONTINUOUS
 62
7
 370
13
 100
AcDbLine
 10
6537994.85
 20
5571030.85
 11
6537996.2
 21
5571029.96
  0
LINE
  5
62D
 100
AcDbEntity
  8
000 Inne (niezydentyfikowane)
  6
CONTINUOUS
 62
7
 370
13
 100
AcDbLine
 10
6537995.15
 20
5571031.3
 11
6537995.82
 21
5571030.86
  0
LINE
  5
62E
 100
AcDbEntity
  8
000 Inne (niezydentyfikowane)
  6
CONTINUOUS
 62
7
 370
13
 100
AcDbLine
 10
6537995.44
 20
5571031.74
 11
6537996.74
 21
5571030.89
  0
LINE
  5
62F
 100
AcDbEntity
  8
000 Inne (niezydentyfikowane)
  6
CONTINUOUS
 62
7
 370
13
 100
AcDbLine
 10
6537995.73
 20
5571032.18
 11
6537996.36
 21
5571031.77
  0
LINE
  5
630
 100
AcDbEntity
  8
000 Inne (niezydentyfikowane)
  6
CONTINUOUS
 62
7
 370
13
 100
AcDbLine
 10
6537996.01
 20
5571032.6
 11
6537997.21
 21
5571031.8
  0
LINE
  5
631
 100
AcDbEntity
  8
000 Inne (niezydentyfikowane)
  6
CONTINUOUS
 62
7
 370
13
 100
AcDbLine
 10
6537996.28
 20
5571033.0
 11
6537996.86
 21
5571032.62
  0
LINE
  5
632
 100
AcDbEntity
  8
000 Inne (niezydentyfikowane)
  6
CONTINUOUS
 62
7
 370
13
 100
AcDbLine
 10
6537996.54
 20
5571033.39
 11
6537997.63
 21
5571032.67
  0
LINE
  5
633
 100
AcDbEntity
  8
000 Inne (niezydentyfikowane)
  6
CONTINUOUS
 62
7
 370
13
 100
AcDbLine
 10
6537996.78
 20
5571033.77
 11
6537997.3
 21
5571033.43
  0
LINE
  5
634
 100
AcDbEntity
  8
000 Inne (niezydentyfikowane)
  6
CONTINUOUS
 62
7
 370
13
 100
AcDbLine
 10
6537997.01
 20
5571034.12
 11
6537997.97
 21
5571033.48
  0
LINE
  5
635
 100
AcDbEntity
  8
000 Inne (niezydentyfikowane)
  6
CONTINUOUS
 62
7
 370
13
 100
AcDbLine
 10
6537997.23
 20
5571034.44
 11
6537997.68
 21
5571034.15
  0
LINE
  5
636
 100
AcDbEntity
  8
000 Inne (niezydentyfikowane)
  6
CONTINUOUS
 62
7
 370
13
 100
AcDbLine
 10
6537997.43
 20
5571034.75
 11
6537998.27
 21
5571034.2
  0
LINE
  5
637
 100
AcDbEntity
  8
000 Inne (niezydentyfikowane)
  6
CONTINUOUS
 62
7
 370
13
 100
AcDbLine
 10
6537997.62
 20
5571035.04
 11
6537998.01
 21
5571034.78
  0
LINE
  5
638
 100
AcDbEntity
  8
000 Inne (niezydentyfikowane)
  6
CONTINUOUS
 62
7
 370
13
 100
AcDbLine
 10
6537997.8
 20
5571035.3
 11
6537998.53
 21
5571034.82
  0
LINE
  5
639
 100
AcDbEntity
  8
000 Inne (niezydentyfikowane)
  6
CONTINUOUS
 62
7
 370
13
 100
AcDbLine
 10
6537997.96
 20
5571035.55
 11
6537998.3
 21
5571035.33
  0
LINE
  5
63A
 100
AcDbEntity
  8
000 Inne (niezydentyfikowane)
  6
CONTINUOUS
 62
7
 370
13
 100
AcDbLine
 10
6537998.1
 20
5571035.8
 11
6537998.78
 21
5571035.43
  0
LINE
  5
63B
 100
AcDbEntity
  8
000 Inne (niezydentyfikowane)
  6
CONTINUOUS
 62
7
 370
13
 100
AcDbLine
 10
6537998.22
 20
5571036.03
 11
6537998.55
 21
5571035.85
  0
LINE
  5
63C
 100
AcDbEntity
  8
000 Inne (niezydentyfikowane)
  6
CONTINUOUS
 62
7
 370
13
 100
AcDbLine
 10
6537998.34
 20
5571036.25
 11
6537998.98
 21
5571035.91
  0
LINE
  5
63D
 100
AcDbEntity
  8
000 Inne (niezydentyfikowane)
  6
CONTINUOUS
 62
7
 370
13
 100
AcDbLine
 10
6537998.46
 20
5571036.48
 11
6537998.77
 21
5571036.31
  0
LINE
  5
63E
 100
AcDbEntity
  8
000 Inne (niezydentyfikowane)
  6
CONTINUOUS
 62
7
 370
13
 100
AcDbLine
 10
6537998.58
 20
5571036.7
 11
6537999.17
 21
5571036.38
  0
LINE
  5
63F
 100
AcDbEntity
  8
000 Inne (niezydentyfikowane)
  6
CONTINUOUS
 62
7
 370
13
 100
AcDbLine
 10
6537998.7
 20
5571036.92
 11
6537998.98
 21
5571036.77
  0
LINE
  5
640
 100
AcDbEntity
  8
000 Inne (niezydentyfikowane)
  6
CONTINUOUS
 62
7
 370
13
 100
AcDbLine
 10
6537998.82
 20
5571037.15
 11
6537999.37
 21
5571036.85
  0
LINE
  5
641
 100
AcDbEntity
  8
000 Inne (niezydentyfikowane)
  6
CONTINUOUS
 62
7
 370
13
 100
AcDbLine
 10
6537998.94
 20
5571037.37
 11
6537999.2
 21
5571037.23
  0
LINE
  5
642
 100
AcDbEntity
  8
000 Inne (niezydentyfikowane)
  6
CONTINUOUS
 62
7
 370
13
 100
AcDbLine
 10
6537999.06
 20
5571037.59
 11
6537999.56
 21
5571037.32
  0
LINE
  5
643
 100
AcDbEntity
  8
000 Inne (niezydentyfikowane)
  6
CONTINUOUS
 62
7
 370
13
 100
AcDbLine
 10
6537999.18
 20
5571037.82
 11
6537999.42
 21
5571037.69
  0
LINE
  5
644
 100
AcDbEntity
  8
000 Inne (niezydentyfikowane)
  6
CONTINUOUS
 62
7
 370
13
 100
AcDbLine
 10
6537999.3
 20
5571038.04
 11
6537999.76
 21
5571037.79
  0
LINE
  5
645
 100
AcDbEntity
  8
000 Inne (niezydentyfikowane)
  6
CONTINUOUS
 62
7
 370
13
 100
AcDbLine
 10
6537999.41
 20
5571038.26
 11
6537999.64
 21
5571038.14
  0
LINE
  5
646
 100
AcDbEntity
  8
000 Inne (niezydentyfikowane)
  6
CONTINUOUS
 62
7
 370
13
 100
AcDbLine
 10
6537999.53
 20
5571038.49
 11
6537999.95
 21
5571038.26
  0
LINE
  5
647
 100
AcDbEntity
  8
000 Inne (niezydentyfikowane)
  6
CONTINUOUS
 62
7
 370
13
 100
AcDbLine
 10
6537999.65
 20
5571038.71
 11
6537999.85
 21
5571038.6
  0
LINE
  5
648
 100
AcDbEntity
  8
000 Inne (niezydentyfikowane)
  6
CONTINUOUS
 62
7
 370
13
 100
AcDbLine
 10
6537999.77
 20
5571038.93
 11
6538000.15
 21
5571038.73
  0
LINE
  5
649
 100
AcDbEntity
  8
000 Inne (niezydentyfikowane)
  6
CONTINUOUS
 62
7
 370
13
 100
AcDbLine
 10
6537999.89
 20
5571039.16
 11
6538000.07
 21
5571039.06
  0
LINE
  5
64A
 100
AcDbEntity
  8
000 Inne (niezydentyfikowane)
  6
CONTINUOUS
 62
7
 370
13
 100
AcDbLine
 10
6538000.01
 20
5571039.38
 11
6538000.34
 21
5571039.2
  0
LINE
  5
64B
 100
AcDbEntity
  8
000 Inne (niezydentyfikowane)
  6
CONTINUOUS
 62
7
 370
13
 100
AcDbLine
 10
6538000.13
 20
5571039.6
 11
6538000.29
 21
5571039.52
  0
LINE
  5
64C
 100
AcDbEntity
  8
000 Inne (niezydentyfikowane)
  6
CONTINUOUS
 62
7
 370
13
 100
AcDbLine
 10
6538000.25
 20
5571039.83
 11
6538000.54
 21
5571039.67
  0
LINE
  5
64D
 100
AcDbEntity
  8
000 Inne (niezydentyfikowane)
  6
CONTINUOUS
 62
7
 370
13
 100
AcDbLine
 10
6538000.37
 20
5571040.05
 11
6538000.5
 21
5571039.98
  0
LINE
  5
64E
 100
AcDbEntity
  8
000 Inne (niezydentyfikowane)
  6
CONTINUOUS
 62
7
 370
13
 100
AcDbLine
 10
6538000.49
 20
5571040.27
 11
6538000.73
 21
5571040.14
  0
LINE
  5
64F
 100
AcDbEntity
  8
000 Inne (niezydentyfikowane)
  6
CONTINUOUS
 62
7
 370
13
 100
AcDbLine
 10
6538000.61
 20
5571040.5
 11
6538000.72
 21
5571040.44
  0
LINE
  5
650
 100
AcDbEntity
  8
000 Inne (niezydentyfikowane)
  6
CONTINUOUS
 62
7
 370
13
 100
AcDbLine
 10
6538000.73
 20
5571040.72
 11
6538000.93
 21
5571040.61
  0
LINE
  5
651
 100
AcDbEntity
  8
000 Inne (niezydentyfikowane)
  6
CONTINUOUS
 62
7
 370
13
 100
AcDbLine
 10
6538000.85
 20
5571040.94
 11
6538000.94
 21
5571040.9
  0
LINE
  5
652
 100
AcDbEntity
  8
000 Inne (niezydentyfikowane)
  6
CONTINUOUS
 62
7
 370
13
 100
AcDbLine
 10
6538000.97
 20
5571041.17
 11
6538001.12
 21
5571041.08
  0
LINE
  5
653
 100
AcDbEntity
  8
000 Inne (niezydentyfikowane)
  6
CONTINUOUS
 62
7
 370
13
 100
AcDbLine
 10
6538001.09
 20
5571041.39
 11
6538001.15
 21
5571041.35
  0
LINE
  5
654
 100
AcDbEntity
  8
000 Inne (niezydentyfikowane)
  6
CONTINUOUS
 62
7
 370
13
 100
AcDbLine
 10
6538001.21
 20
5571041.61
 11
6538001.32
 21
5571041.55
  0
LINE
  5
655
 100
AcDbEntity
  8
000 Inne (niezydentyfikowane)
  6
CONTINUOUS
 62
7
 370
13
 100
AcDbLine
 10
6538001.33
 20
5571041.84
 11
6538001.37
 21
5571041.81
  0
LINE
  5
656
 100
AcDbEntity
  8
000 Inne (niezydentyfikowane)
  6
CONTINUOUS
 62
7
 370
13
 100
AcDbLine
 10
6538001.45
 20
5571042.06
 11
6538001.51
 21
5571042.02
  0
LINE
  5
657
 100
AcDbEntity
  8
000 Inne (niezydentyfikowane)
  6
CONTINUOUS
 62
7
 370
13
 100
AcDbLine
 10
6538001.57
 20
5571042.28
 11
6538001.59
 21
5571042.27
  0
LINE
  5
658
 100
AcDbEntity
  8
000 Inne (niezydentyfikowane)
  6
CONTINUOUS
 62
7
 370
13
 100
AcDbLine
 10
6538001.69
 20
5571042.51
 11
6538001.71
 21
5571042.5
  0
POLYLINE
  5
659
 100
AcDbEntity
  8
skarpa nieumocniona (powierzchnia)
  6
mz1.8_0.7
 62
7
 370
18
 100
AcDb2dPolyline
 66
1
 10
0
 20
0
 70
129
  0
VERTEX
  5
65A
 100
AcDbEntity
  8
0
 100
AcDbVertex
 100
AcDb2dVertex
 10
6537997.54
 20
5571032.44
 42
0.0
 70
0
  0
VERTEX
  5
65B
 100
AcDbEntity
  8
0
 100
AcDbVertex
 100
AcDb2dVertex
 10
6537996.57
 20
5571030.56
 42
0.0
 70
0
  0
VERTEX
  5
65C
 100
AcDbEntity
  8
0
 100
AcDbVertex
 100
AcDb2dVertex
 10
6537994.52
 20
5571027.28
 42
0.0
 70
0
  0
VERTEX
  5
65D
 100
AcDbEntity
  8
0
 100
AcDbVertex
 100
AcDb2dVertex
 10
6537991.91
 20
5571026.02
 42
0.0
 70
0
  0
VERTEX
  5
65E
 100
AcDbEntity
  8
0
 100
AcDbVertex
 100
AcDb2dVertex
 10
6537991.49
 20
5571027.38
 42
0.0
 70
0
  0
VERTEX
  5
65F
 100
AcDbEntity
  8
0
 100
AcDbVertex
 100
AcDb2dVertex
 10
6537992.9
 20
5571028.07
 42
0.0
 70
0
  0
VERTEX
  5
660
 100
AcDbEntity
  8
0
 100
AcDbVertex
 100
AcDb2dVertex
 10
6537994.67
 20
5571030.57
 42
0.0
 70
0
  0
VERTEX
  5
661
 100
AcDbEntity
  8
0
 100
AcDbVertex
 100
AcDb2dVertex
 10
6537997.98
 20
5571035.58
 42
0.0
 70
0
  0
VERTEX
  5
662
 100
AcDbEntity
  8
0
 100
AcDbVertex
 100
AcDb2dVertex
 10
6538001.81
 20
5571042.74
 42
0.0
 70
0
  0
SEQEND
  5
663
 100
AcDbEntity
  8
0
  0
LINE
  5
664
 100
AcDbEntity
  8
000 Inne (niezydentyfikowane)
  6
CONTINUOUS
 62
7
 370
13
 100
AcDbLine
 10
6537980.87
 20
5571025.39
 11
6537981.48
 21
5571026.08
  0
LINE
  5
665
 100
AcDbEntity
  8
000 Inne (niezydentyfikowane)
  6
CONTINUOUS
 62
7
 370
13
 100
AcDbLine
 10
6537980.51
 20
5571025.7
 11
6537981.1
 21
5571026.38
  0
LINE
  5
666
 100
AcDbEntity
  8
000 Inne (niezydentyfikowane)
  6
CONTINUOUS
 62
7
 370
13
 100
AcDbLine
 10
6537980.08
 20
5571026.08
 11
6537981.61
 21
5571027.83
  0
LINE
  5
667
 100
AcDbEntity
  8
000 Inne (niezydentyfikowane)
  6
CONTINUOUS
 62
7
 370
13
 100
AcDbLine
 10
6537979.54
 20
5571026.55
 11
6537980.23
 21
5571027.34
  0
LINE
  5
668
 100
AcDbEntity
  8
000 Inne (niezydentyfikowane)
  6
CONTINUOUS
 62
7
 370
13
 100
AcDbLine
 10
6537978.96
 20
5571026.93
 11
6537979.77
 21
5571028.61
  0
LINE
  5
669
 100
AcDbEntity
  8
000 Inne (niezydentyfikowane)
  6
CONTINUOUS
 62
7
 370
13
 100
AcDbLine
 10
6537978.38
 20
5571027.21
 11
6537978.78
 21
5571028.04
  0
LINE
  5
66A
 100
AcDbEntity
  8
000 Inne (niezydentyfikowane)
  6
CONTINUOUS
 62
7
 370
13
 100
AcDbLine
 10
6537977.82
 20
5571027.48
 11
6537978.61
 21
5571029.11
  0
LINE
  5
66B
 100
AcDbEntity
  8
000 Inne (niezydentyfikowane)
  6
CONTINUOUS
 62
7
 370
13
 100
AcDbLine
 10
6537977.28
 20
5571027.75
 11
6537977.66
 21
5571028.55
  0
LINE
  5
66C
 100
AcDbEntity
  8
000 Inne (niezydentyfikowane)
  6
CONTINUOUS
 62
7
 370
13
 100
AcDbLine
 10
6537976.74
 20
5571028.01
 11
6537977.5
 21
5571029.58
  0
LINE
  5
66D
 100
AcDbEntity
  8
000 Inne (niezydentyfikowane)
  6
CONTINUOUS
 62
7
 370
13
 100
AcDbLine
 10
6537976.21
 20
5571028.26
 11
6537976.59
 21
5571029.04
  0
LINE
  5
66E
 100
AcDbEntity
  8
000 Inne (niezydentyfikowane)
  6
CONTINUOUS
 62
7
 370
13
 100
AcDbLine
 10
6537975.69
 20
5571028.52
 11
6537976.43
 21
5571030.04
  0
LINE
  5
66F
 100
AcDbEntity
  8
000 Inne (niezydentyfikowane)
  6
CONTINUOUS
 62
7
 370
13
 100
AcDbLine
 10
6537975.18
 20
5571028.76
 11
6537975.55
 21
5571029.51
  0
LINE
  5
670
 100
AcDbEntity
  8
000 Inne (niezydentyfikowane)
  6
CONTINUOUS
 62
7
 370
13
 100
AcDbLine
 10
6537974.68
 20
5571029.01
 11
6537975.4
 21
5571030.48
  0
LINE
  5
671
 100
AcDbEntity
  8
000 Inne (niezydentyfikowane)
  6
CONTINUOUS
 62
7
 370
13
 100
AcDbLine
 10
6537974.19
 20
5571029.25
 11
6537974.54
 21
5571029.97
  0
LINE
  5
672
 100
AcDbEntity
  8
000 Inne (niezydentyfikowane)
  6
CONTINUOUS
 62
7
 370
13
 100
AcDbLine
 10
6537973.7
 20
5571029.48
 11
6537974.4
 21
5571030.9
  0
LINE
  5
673
 100
AcDbEntity
  8
000 Inne (niezydentyfikowane)
  6
CONTINUOUS
 62
7
 370
13
 100
AcDbLine
 10
6537973.23
 20
5571029.71
 11
6537973.57
 21
5571030.41
  0
LINE
  5
674
 100
AcDbEntity
  8
000 Inne (niezydentyfikowane)
  6
CONTINUOUS
 62
7
 370
13
 100
AcDbLine
 10
6537972.76
 20
5571029.94
 11
6537973.43
 21
5571031.32
  0
LINE
  5
675
 100
AcDbEntity
  8
000 Inne (niezydentyfikowane)
  6
CONTINUOUS
 62
7
 370
13
 100
AcDbLine
 10
6537972.3
 20
5571030.16
 11
6537972.62
 21
5571030.84
  0
LINE
  5
676
 100
AcDbEntity
  8
000 Inne (niezydentyfikowane)
  6
CONTINUOUS
 62
7
 370
13
 100
AcDbLine
 10
6537971.84
 20
5571030.38
 11
6537972.49
 21
5571031.72
  0
LINE
  5
677
 100
AcDbEntity
  8
000 Inne (niezydentyfikowane)
  6
CONTINUOUS
 62
7
 370
13
 100
AcDbLine
 10
6537971.39
 20
5571030.6
 11
6537971.71
 21
5571031.26
  0
LINE
  5
678
 100
AcDbEntity
  8
000 Inne (niezydentyfikowane)
  6
CONTINUOUS
 62
7
 370
13
 100
AcDbLine
 10
6537970.96
 20
5571030.82
 11
6537971.58
 21
5571032.1
  0
LINE
  5
679
 100
AcDbEntity
  8
000 Inne (niezydentyfikowane)
  6
CONTINUOUS
 62
7
 370
13
 100
AcDbLine
 10
6537970.52
 20
5571031.02
 11
6537970.83
 21
5571031.66
  0
LINE
  5
67A
 100
AcDbEntity
  8
000 Inne (niezydentyfikowane)
  6
CONTINUOUS
 62
7
 370
13
 100
AcDbLine
 10
6537970.1
 20
5571031.23
 11
6537970.7
 21
5571032.48
  0
LINE
  5
67B
 100
AcDbEntity
  8
000 Inne (niezydentyfikowane)
  6
CONTINUOUS
 62
7
 370
13
 100
AcDbLine
 10
6537969.68
 20
5571031.43
 11
6537969.98
 21
5571032.05
  0
LINE
  5
67C
 100
AcDbEntity
  8
000 Inne (niezydentyfikowane)
  6
CONTINUOUS
 62
7
 370
13
 100
AcDbLine
 10
6537969.27
 20
5571031.63
 11
6537969.85
 21
5571032.84
  0
LINE
  5
67D
 100
AcDbEntity
  8
000 Inne (niezydentyfikowane)
  6
CONTINUOUS
 62
7
 370
13
 100
AcDbLine
 10
6537968.86
 20
5571031.83
 11
6537969.15
 21
5571032.42
  0
LINE
  5
67E
 100
AcDbEntity
  8
000 Inne (niezydentyfikowane)
  6
CONTINUOUS
 62
7
 370
13
 100
AcDbLine
 10
6537968.47
 20
5571032.02
 11
6537969.03
 21
5571033.19
  0
LINE
  5
67F
 100
AcDbEntity
  8
000 Inne (niezydentyfikowane)
  6
CONTINUOUS
 62
7
 370
13
 100
AcDbLine
 10
6537968.07
 20
5571032.21
 11
6537968.35
 21
5571032.79
  0
LINE
  5
680
 100
AcDbEntity
  8
000 Inne (niezydentyfikowane)
  6
CONTINUOUS
 62
7
 370
13
 100
AcDbLine
 10
6537967.69
 20
5571032.4
 11
6537968.24
 21
5571033.53
  0
LINE
  5
681
 100
AcDbEntity
  8
000 Inne (niezydentyfikowane)
  6
CONTINUOUS
 62
7
 370
13
 100
AcDbLine
 10
6537967.31
 20
5571032.58
 11
6537967.58
 21
5571033.14
  0
LINE
  5
682
 100
AcDbEntity
  8
000 Inne (niezydentyfikowane)
  6
CONTINUOUS
 62
7
 370
13
 100
AcDbLine
 10
6537966.94
 20
5571032.77
 11
6537967.47
 21
5571033.86
  0
LINE
  5
683
 100
AcDbEntity
  8
000 Inne (niezydentyfikowane)
  6
CONTINUOUS
 62
7
 370
13
 100
AcDbLine
 10
6537966.57
 20
5571032.94
 11
6537966.83
 21
5571033.48
  0
LINE
  5
684
 100
AcDbEntity
  8
000 Inne (niezydentyfikowane)
  6
CONTINUOUS
 62
7
 370
13
 100
AcDbLine
 10
6537966.21
 20
5571033.12
 11
6537966.72
 21
5571034.18
  0
LINE
  5
685
 100
AcDbEntity
  8
000 Inne (niezydentyfikowane)
  6
CONTINUOUS
 62
7
 370
13
 100
AcDbLine
 10
6537965.85
 20
5571033.29
 11
6537966.11
 21
5571033.81
  0
LINE
  5
686
 100
AcDbEntity
  8
000 Inne (niezydentyfikowane)
  6
CONTINUOUS
 62
7
 370
13
 100
AcDbLine
 10
6537965.51
 20
5571033.46
 11
6537966.0
 21
5571034.48
  0
LINE
  5
687
 100
AcDbEntity
  8
000 Inne (niezydentyfikowane)
  6
CONTINUOUS
 62
7
 370
13
 100
AcDbLine
 10
6537965.16
 20
5571033.63
 11
6537965.41
 21
5571034.13
  0
LINE
  5
688
 100
AcDbEntity
  8
000 Inne (niezydentyfikowane)
  6
CONTINUOUS
 62
7
 370
13
 100
AcDbLine
 10
6537964.82
 20
5571033.79
 11
6537965.31
 21
5571034.78
  0
LINE
  5
689
 100
AcDbEntity
  8
000 Inne (niezydentyfikowane)
  6
CONTINUOUS
 62
7
 370
13
 100
AcDbLine
 10
6537964.49
 20
5571033.95
 11
6537964.73
 21
5571034.44
  0
LINE
  5
68A
 100
AcDbEntity
  8
000 Inne (niezydentyfikowane)
  6
CONTINUOUS
 62
7
 370
13
 100
AcDbLine
 10
6537964.17
 20
5571034.11
 11
6537964.63
 21
5571035.07
  0
LINE
  5
68B
 100
AcDbEntity
  8
000 Inne (niezydentyfikowane)
  6
CONTINUOUS
 62
7
 370
13
 100
AcDbLine
 10
6537963.84
 20
5571034.27
 11
6537964.07
 21
5571034.74
  0
LINE
  5
68C
 100
AcDbEntity
  8
000 Inne (niezydentyfikowane)
  6
CONTINUOUS
 62
7
 370
13
 100
AcDbLine
 10
6537963.53
 20
5571034.42
 11
6537963.98
 21
5571035.35
  0
LINE
  5
68D
 100
AcDbEntity
  8
000 Inne (niezydentyfikowane)
  6
CONTINUOUS
 62
7
 370
13
 100
AcDbLine
 10
6537963.22
 20
5571034.57
 11
6537963.44
 21
5571035.03
  0
LINE
  5
68E
 100
AcDbEntity
  8
000 Inne (niezydentyfikowane)
  6
CONTINUOUS
 62
7
 370
13
 100
AcDbLine
 10
6537962.91
 20
5571034.72
 11
6537963.35
 21
5571035.62
  0
LINE
  5
68F
 100
AcDbEntity
  8
000 Inne (niezydentyfikowane)
  6
CONTINUOUS
 62
7
 370
13
 100
AcDbLine
 10
6537962.61
 20
5571034.86
 11
6537962.83
 21
5571035.31
  0
LINE
  5
690
 100
AcDbEntity
  8
000 Inne (niezydentyfikowane)
  6
CONTINUOUS
 62
7
 370
13
 100
AcDbLine
 10
6537962.32
 20
5571035.01
 11
6537962.74
 21
5571035.88
  0
LINE
  5
691
 100
AcDbEntity
  8
000 Inne (niezydentyfikowane)
  6
CONTINUOUS
 62
7
 370
13
 100
AcDbLine
 10
6537962.02
 20
5571035.15
 11
6537962.23
 21
5571035.58
  0
LINE
  5
692
 100
AcDbEntity
  8
000 Inne (niezydentyfikowane)
  6
CONTINUOUS
 62
7
 370
13
 100
AcDbLine
 10
6537961.74
 20
5571035.29
 11
6537962.15
 21
5571036.13
  0
LINE
  5
693
 100
AcDbEntity
  8
000 Inne (niezydentyfikowane)
  6
CONTINUOUS
 62
7
 370
13
 100
AcDbLine
 10
6537961.46
 20
5571035.42
 11
6537961.66
 21
5571035.84
  0
POLYLINE
  5
694
 100
AcDbEntity
  8
skarpa nieumocniona (powierzchnia)
  6
mz1.8_0.7
 62
7
 370
18
 100
AcDb2dPolyline
 66
1
 10
0
 20
0
 70
129
  0
VERTEX
  5
695
 100
AcDbEntity
  8
0
 100
AcDbVertex
 100
AcDb2dVertex
 10
6537981.84
 20
5571027.73
 42
0.0
 70
0
  0
VERTEX
  5
696
 100
AcDbEntity
  8
0
 100
AcDbVertex
 100
AcDb2dVertex
 10
6537981.25
 20
5571025.06
 42
0.0
 70
0
  0
VERTEX
  5
697
 100
AcDbEntity
  8
0
 100
AcDbVertex
 100
AcDb2dVertex
 10
6537979.29
 20
5571026.77
 42
0.0
 70
0
  0
VERTEX
  5
698
 100
AcDbEntity
  8
0
 100
AcDbVertex
 100
AcDb2dVertex
 10
6537961.24
 20
5571035.53
 42
0.0
 70
0
  0
VERTEX
  5
699
 100
AcDbEntity
  8
0
 100
AcDbVertex
 100
AcDb2dVertex
 10
6537961.72
 20
5571036.31
 42
0.0
 70
0
  0
SEQEND
  5
69A
 100
AcDbEntity
  8
0
  0
LINE
  5
69B
 100
AcDbEntity
  8
000 Inne (niezydentyfikowane)
  6
CONTINUOUS
 62
7
 370
13
 100
AcDbLine
 10
6537984.89
 20
5571022.9
 11
6537985.41
 21
5571023.78
  0
LINE
  5
69C
 100
AcDbEntity
  8
000 Inne (niezydentyfikowane)
  6
CONTINUOUS
 62
7
 370
13
 100
AcDbLine
 10
6537984.46
 20
5571023.16
 11
6537984.71
 21
5571023.59
  0
LINE
  5
69D
 100
AcDbEntity
  8
000 Inne (niezydentyfikowane)
  6
CONTINUOUS
 62
7
 370
13
 100
AcDbLine
 10
6537984.13
 20
5571023.35
 11
6537984.63
 21
5571024.19
  0
LINE
  5
69E
 100
AcDbEntity
  8
000 Inne (niezydentyfikowane)
  6
CONTINUOUS
 62
7
 370
13
 100
AcDbLine
 10
6537983.84
 20
5571023.52
 11
6537984.09
 21
5571023.94
  0
LINE
  5
69F
 100
AcDbEntity
  8
000 Inne (niezydentyfikowane)
  6
CONTINUOUS
 62
7
 370
13
 100
AcDbLine
 10
6537983.57
 20
5571023.69
 11
6537984.04
 21
5571024.5
  0
LINE
  5
6A0
 100
AcDbEntity
  8
000 Inne (niezydentyfikowane)
  6
CONTINUOUS
 62
7
 370
13
 100
AcDbLine
 10
6537983.29
 20
5571023.85
 11
6537983.53
 21
5571024.25
  0
LINE
  5
6A1
 100
AcDbEntity
  8
000 Inne (niezydentyfikowane)
  6
CONTINUOUS
 62
7
 370
13
 100
AcDbLine
 10
6537983.03
 20
5571024.01
 11
6537983.49
 21
5571024.79
  0
LINE
  5
6A2
 100
AcDbEntity
  8
000 Inne (niezydentyfikowane)
  6
CONTINUOUS
 62
7
 370
13
 100
AcDbLine
 10
6537982.76
 20
5571024.16
 11
6537982.99
 21
5571024.55
  0
LINE
  5
6A3
 100
AcDbEntity
  8
000 Inne (niezydentyfikowane)
  6
CONTINUOUS
 62
7
 370
13
 100
AcDbLine
 10
6537982.51
 20
5571024.32
 11
6537982.95
 21
5571025.07
  0
LINE
  5
6A4
 100
AcDbEntity
  8
000 Inne (niezydentyfikowane)
  6
CONTINUOUS
 62
7
 370
13
 100
AcDbLine
 10
6537982.25
 20
5571024.47
 11
6537982.47
 21
5571024.84
  0
LINE
  5
6A5
 100
AcDbEntity
  8
000 Inne (niezydentyfikowane)
  6
CONTINUOUS
 62
7
 370
13
 100
AcDbLine
 10
6537982.01
 20
5571024.61
 11
6537982.42
 21
5571025.31
  0
LINE
  5
6A6
 100
AcDbEntity
  8
000 Inne (niezydentyfikowane)
  6
CONTINUOUS
 62
7
 370
13
 100
AcDbLine
 10
6537981.77
 20
5571024.75
 11
6537981.96
 21
5571025.08
  0
LINE
  5
6A7
 100
AcDbEntity
  8
000 Inne (niezydentyfikowane)
  6
CONTINUOUS
 62
7
 370
13
 100
AcDbLine
 10
6537981.55
 20
5571024.89
 11
6537982.1
 21
5571025.43
  0
LINE
  5
6A8
 100
AcDbEntity
  8
000 Inne (niezydentyfikowane)
  6
CONTINUOUS
 62
7
 370
13
 100
AcDbLine
 10
6537981.32
 20
5571025.02
 11
6537981.71
 21
5571025.22
  0
LINE
  5
6A9
 100
AcDbEntity
  8
000 Inne (niezydentyfikowane)
  6
CONTINUOUS
 62
7
 370
13
 100
AcDbLine
 10
6537981.29
 20
5571025.26
 11
6537982.1
 21
5571025.43
  0
LINE
  5
6AA
 100
AcDbEntity
  8
000 Inne (niezydentyfikowane)
  6
CONTINUOUS
 62
7
 370
13
 100
AcDbLine
 10
6537981.35
 20
5571025.53
 11
6537981.73
 21
5571025.48
  0
LINE
  5
6AB
 100
AcDbEntity
  8
000 Inne (niezydentyfikowane)
  6
CONTINUOUS
 62
7
 370
13
 100
AcDbLine
 10
6537981.41
 20
5571025.78
 11
6537982.06
 21
5571025.64
  0
LINE
  5
6AC
 100
AcDbEntity
  8
000 Inne (niezydentyfikowane)
  6
CONTINUOUS
 62
7
 370
13
 100
AcDbLine
 10
6537981.47
 20
5571026.04
 11
6537981.75
 21
5571025.97
  0
LINE
  5
6AD
 100
AcDbEntity
  8
000 Inne (niezydentyfikowane)
  6
CONTINUOUS
 62
7
 370
13
 100
AcDbLine
 10
6537981.52
 20
5571026.29
 11
6537982.0
 21
5571026.18
  0
LINE
  5
6AE
 100
AcDbEntity
  8
000 Inne (niezydentyfikowane)
  6
CONTINUOUS
 62
7
 370
13
 100
AcDbLine
 10
6537981.58
 20
5571026.54
 11
6537981.78
 21
5571026.5
  0
LINE
  5
6AF
 100
AcDbEntity
  8
000 Inne (niezydentyfikowane)
  6
CONTINUOUS
 62
7
 370
13
 100
AcDbLine
 10
6537981.63
 20
5571026.79
 11
6537981.95
 21
5571026.73
  0
LINE
  5
6B0
 100
AcDbEntity
  8
000 Inne (niezydentyfikowane)
  6
CONTINUOUS
 62
7
 370
13
 100
AcDbLine
 10
6537981.69
 20
5571027.05
 11
6537981.8
 21
5571027.02
  0
LINE
  5
6B1
 100
AcDbEntity
  8
000 Inne (niezydentyfikowane)
  6
CONTINUOUS
 62
7
 370
13
 100
AcDbLine
 10
6537981.75
 20
5571027.3
 11
6537981.89
 21
5571027.27
  0
LINE
  5
6B2
 100
AcDbEntity
  8
000 Inne (niezydentyfikowane)
  6
CONTINUOUS
 62
7
 370
13
 100
AcDbLine
 10
6537981.8
 20
5571027.55
 11
6537981.83
 21
5571027.55
  0
POLYLINE
  5
6B3
 100
AcDbEntity
  8
skarpa nieumocniona (powierzchnia)
  6
mz1.8_0.7
 62
7
 370
18
 100
AcDb2dPolyline
 66
1
 10
0
 20
0
 70
129
  0
VERTEX
  5
6B4
 100
AcDbEntity
  8
0
 100
AcDbVertex
 100
AcDb2dVertex
 10
6537982.08
 20
5571025.44
 42
0.0
 70
0
  0
VERTEX
  5
6B5
 100
AcDbEntity
  8
0
 100
AcDbVertex
 100
AcDb2dVertex
 10
6537982.73
 20
5571025.19
 42
0.0
 70
0
  0
VERTEX
  5
6B6
 100
AcDbEntity
  8
0
 100
AcDbVertex
 100
AcDb2dVertex
 10
6537985.58
 20
5571023.69
 42
0.0
 70
0
  0
VERTEX
  5
6B7
 100
AcDbEntity
  8
0
 100
AcDbVertex
 100
AcDb2dVertex
 10
6537985.32
 20
5571022.65
 42
0.0
 70
0
  0
VERTEX
  5
6B8
 100
AcDbEntity
  8
0
 100
AcDbVertex
 100
AcDb2dVertex
 10
6537981.25
 20
5571025.06
 42
0.0
 70
0
  0
VERTEX
  5
6B9
 100
AcDbEntity
  8
0
 100
AcDbVertex
 100
AcDb2dVertex
 10
6537981.84
 20
5571027.73
 42
0.0
 70
0
  0
SEQEND
  5
6BA
 100
AcDbEntity
  8
0
  0
LINE
  5
6BB
 100
AcDbEntity
  8
000 Inne (niezydentyfikowane)
  6
CONTINUOUS
 62
7
 370
13
 100
AcDbLine
 10
6537982.01
 20
5571027.26
 11
6537981.89
 21
5571027.22
  0
LINE
  5
6BC
 100
AcDbEntity
  8
000 Inne (niezydentyfikowane)
  6
CONTINUOUS
 62
7
 370
13
 100
AcDbLine
 10
6537982.1
 20
5571026.99
 11
6537982.01
 21
5571026.96
  0
LINE
  5
6BD
 100
AcDbEntity
  8
000 Inne (niezydentyfikowane)
  6
CONTINUOUS
 62
7
 370
13
 100
AcDbLine
 10
6537982.19
 20
5571026.73
 11
6537981.95
 21
5571026.65
  0
LINE
  5
6BE
 100
AcDbEntity
  8
000 Inne (niezydentyfikowane)
  6
CONTINUOUS
 62
7
 370
13
 100
AcDbLine
 10
6537982.28
 20
5571026.47
 11
6537982.13
 21
5571026.41
  0
LINE
  5
6BF
 100
AcDbEntity
  8
000 Inne (niezydentyfikowane)
  6
CONTINUOUS
 62
7
 370
13
 100
AcDbLine
 10
6537982.38
 20
5571026.2
 11
6537982.01
 21
5571026.08
  0
LINE
  5
6C0
 100
AcDbEntity
  8
000 Inne (niezydentyfikowane)
  6
CONTINUOUS
 62
7
 370
13
 100
AcDbLine
 10
6537982.47
 20
5571025.94
 11
6537982.26
 21
5571025.86
  0
LINE
  5
6C1
 100
AcDbEntity
  8
000 Inne (niezydentyfikowane)
  6
CONTINUOUS
 62
7
 370
13
 100
AcDbLine
 10
6537982.56
 20
5571025.67
 11
6537982.07
 21
5571025.5
  0
LINE
  5
6C2
 100
AcDbEntity
  8
000 Inne (niezydentyfikowane)
  6
CONTINUOUS
 62
7
 370
13
 100
AcDbLine
 10
6537982.65
 20
5571025.41
 11
6537982.52
 21
5571025.37
  0
POLYLINE
  5
6C3
 100
AcDbEntity
  8
skarpa nieumocniona (powierzchnia)
  6
mz1.8_0.7
 62
7
 370
18
 100
AcDb2dPolyline
 66
1
 10
0
 20
0
 70
129
  0
VERTEX
  5
6C4
 100
AcDbEntity
  8
0
 100
AcDbVertex
 100
AcDb2dVertex
 10
6537982.73
 20
5571025.19
 42
0.0
 70
0
  0
VERTEX
  5
6C5
 100
AcDbEntity
  8
0
 100
AcDbVertex
 100
AcDb2dVertex
 10
6537982.08
 20
5571025.44
 42
0.0
 70
0
  0
VERTEX
  5
6C6
 100
AcDbEntity
  8
0
 100
AcDbVertex
 100
AcDb2dVertex
 10
6537981.84
 20
5571027.73
 42
0.0
 70
0
  0
SEQEND
  5
6C7
 100
AcDbEntity
  8
0
  0
LINE
  5
6C8
 100
AcDbEntity
  8
000 Inne (niezydentyfikowane)
  6
CONTINUOUS
 62
7
 370
13
 100
AcDbLine
 10
6537985.14
 20
5571023.92
 11
6537986.04
 21
5571025.63
  0
LINE
  5
6C9
 100
AcDbEntity
  8
000 Inne (niezydentyfikowane)
  6
CONTINUOUS
 62
7
 370
13
 100
AcDbLine
 10
6537984.49
 20
5571024.26
 11
6537984.94
 21
5571025.11
  0
LINE
  5
6CA
 100
AcDbEntity
  8
000 Inne (niezydentyfikowane)
  6
CONTINUOUS
 62
7
 370
13
 100
AcDbLine
 10
6537983.9
 20
5571024.57
 11
6537984.79
 21
5571026.26
  0
LINE
  5
6CB
 100
AcDbEntity
  8
000 Inne (niezydentyfikowane)
  6
CONTINUOUS
 62
7
 370
13
 100
AcDbLine
 10
6537983.34
 20
5571024.87
 11
6537983.8
 21
5571025.69
  0
LINE
  5
6CC
 100
AcDbEntity
  8
000 Inne (niezydentyfikowane)
  6
CONTINUOUS
 62
7
 370
13
 100
AcDbLine
 10
6537982.78
 20
5571025.17
 11
6537984.27
 21
5571026.52
  0
LINE
  5
6CD
 100
AcDbEntity
  8
000 Inne (niezydentyfikowane)
  6
CONTINUOUS
 62
7
 370
13
 100
AcDbLine
 10
6537982.53
 20
5571025.77
 11
6537983.4
 21
5571026.14
  0
LINE
  5
6CE
 100
AcDbEntity
  8
000 Inne (niezydentyfikowane)
  6
CONTINUOUS
 62
7
 370
13
 100
AcDbLine
 10
6537982.32
 20
5571026.37
 11
6537983.64
 21
5571026.83
  0
LINE
  5
6CF
 100
AcDbEntity
  8
000 Inne (niezydentyfikowane)
  6
CONTINUOUS
 62
7
 370
13
 100
AcDbLine
 10
6537982.15
 20
5571026.85
 11
6537982.58
 21
5571027.0
  0
LINE
  5
6D0
 100
AcDbEntity
  8
000 Inne (niezydentyfikowane)
  6
CONTINUOUS
 62
7
 370
13
 100
AcDbLine
 10
6537982.03
 20
5571027.18
 11
6537982.56
 21
5571027.37
  0
LINE
  5
6D1
 100
AcDbEntity
  8
000 Inne (niezydentyfikowane)
  6
CONTINUOUS
 62
7
 370
13
 100
AcDbLine
 10
6537981.91
 20
5571027.52
 11
6537982.02
 21
5571027.55
  0
POLYLINE
  5
6D2
 100
AcDbEntity
  8
skarpa nieumocniona (powierzchnia)
  6
mz1.8_0.7
 62
7
 370
18
 100
AcDb2dPolyline
 66
1
 10
0
 20
0
 70
129
  0
VERTEX
  5
6D3
 100
AcDbEntity
  8
0
 100
AcDbVertex
 100
AcDb2dVertex
 10
6537986.18
 20
5571025.56
 42
0.0
 70
0
  0
VERTEX
  5
6D4
 100
AcDbEntity
  8
0
 100
AcDbVertex
 100
AcDb2dVertex
 10
6537985.92
 20
5571024.51
 42
0.0
 70
0
  0
VERTEX
  5
6D5
 100
AcDbEntity
  8
0
 100
AcDbVertex
 100
AcDb2dVertex
 10
6537985.58
 20
5571023.69
 42
0.0
 70
0
  0
VERTEX
  5
6D6
 100
AcDbEntity
  8
0
 100
AcDbVertex
 100
AcDb2dVertex
 10
6537982.73
 20
5571025.19
 42
0.0
 70
0
  0
VERTEX
  5
6D7
 100
AcDbEntity
  8
0
 100
AcDbVertex
 100
AcDb2dVertex
 10
6537981.84
 20
5571027.73
 42
0.0
 70
0
  0
SEQEND
  5
6D8
 100
AcDbEntity
  8
0
  0
LINE
  5
6D9
 100
AcDbEntity
  8
000 Inne (niezydentyfikowane)
  6
CONTINUOUS
 62
7
 370
13
 100
AcDbLine
 10
6538001.73
 20
5571023.93
 11
6537998.84
 21
5571024.8
  0
LINE
  5
6DA
 100
AcDbEntity
  8
000 Inne (niezydentyfikowane)
  6
CONTINUOUS
 62
7
 370
13
 100
AcDbLine
 10
6538001.44
 20
5571022.97
 11
6538000.0
 21
5571023.41
  0
LINE
  5
6DB
 100
AcDbEntity
  8
000 Inne (niezydentyfikowane)
  6
CONTINUOUS
 62
7
 370
13
 100
AcDbLine
 10
6538001.15
 20
5571022.01
 11
6537998.29
 21
5571022.88
  0
LINE
  5
6DC
 100
AcDbEntity
  8
000 Inne (niezydentyfikowane)
  6
CONTINUOUS
 62
7
 370
13
 100
AcDbLine
 10
6538000.86
 20
5571021.06
 11
6537999.45
 21
5571021.49
  0
LINE
  5
6DD
 100
AcDbEntity
  8
000 Inne (niezydentyfikowane)
  6
CONTINUOUS
 62
7
 370
13
 100
AcDbLine
 10
6538000.59
 20
5571020.12
 11
6537998.55
 21
5571019.65
  0
LINE
  5
6DE
 100
AcDbEntity
  8
000 Inne (niezydentyfikowane)
  6
CONTINUOUS
 62
7
 370
13
 100
AcDbLine
 10
6538000.76
 20
5571019.37
 11
6537999.81
 21
5571019.15
  0
LINE
  5
6DF
 100
AcDbEntity
  8
000 Inne (niezydentyfikowane)
  6
CONTINUOUS
 62
7
 370
13
 100
AcDbLine
 10
6538000.91
 20
5571018.71
 11
6537999.14
 21
5571018.3
  0
LINE
  5
6E0
 100
AcDbEntity
  8
000 Inne (niezydentyfikowane)
  6
CONTINUOUS
 62
7
 370
13
 100
AcDbLine
 10
6538001.05
 20
5571018.1
 11
6538000.22
 21
5571017.91
  0
LINE
  5
6E1
 100
AcDbEntity
  8
000 Inne (niezydentyfikowane)
  6
CONTINUOUS
 62
7
 370
13
 100
AcDbLine
 10
6538001.18
 20
5571017.53
 11
6537999.59
 21
5571017.17
  0
LINE
  5
6E2
 100
AcDbEntity
  8
000 Inne (niezydentyfikowane)
  6
CONTINUOUS
 62
7
 370
13
 100
AcDbLine
 10
6538001.3
 20
5571016.99
 11
6538000.38
 21
5571016.78
  0
LINE
  5
6E3
 100
AcDbEntity
  8
000 Inne (niezydentyfikowane)
  6
CONTINUOUS
 62
7
 370
13
 100
AcDbLine
 10
6538001.43
 20
5571016.4
 11
6537999.4
 21
5571016.28
  0
LINE
  5
6E4
 100
AcDbEntity
  8
000 Inne (niezydentyfikowane)
  6
CONTINUOUS
 62
7
 370
13
 100
AcDbLine
 10
6538001.34
 20
5571015.75
 11
6538000.36
 21
5571015.96
  0
LINE
  5
6E5
 100
AcDbEntity
  8
000 Inne (niezydentyfikowane)
  6
CONTINUOUS
 62
7
 370
13
 100
AcDbLine
 10
6538001.2
 20
5571015.1
 11
6537999.25
 21
5571015.52
  0
LINE
  5
6E6
 100
AcDbEntity
  8
000 Inne (niezydentyfikowane)
  6
CONTINUOUS
 62
7
 370
13
 100
AcDbLine
 10
6538001.06
 20
5571014.45
 11
6538000.09
 21
5571014.66
  0
LINE
  5
6E7
 100
AcDbEntity
  8
000 Inne (niezydentyfikowane)
  6
CONTINUOUS
 62
7
 370
13
 100
AcDbLine
 10
6538000.92
 20
5571013.8
 11
6537998.98
 21
5571014.21
  0
LINE
  5
6E8
 100
AcDbEntity
  8
000 Inne (niezydentyfikowane)
  6
CONTINUOUS
 62
7
 370
13
 100
AcDbLine
 10
6538000.79
 20
5571013.15
 11
6537999.81
 21
5571013.35
  0
LINE
  5
6E9
 100
AcDbEntity
  8
000 Inne (niezydentyfikowane)
  6
CONTINUOUS
 62
7
 370
13
 100
AcDbLine
 10
6538000.65
 20
5571012.5
 11
6537998.71
 21
5571012.91
  0
LINE
  5
6EA
 100
AcDbEntity
  8
000 Inne (niezydentyfikowane)
  6
CONTINUOUS
 62
7
 370
13
 100
AcDbLine
 10
6538000.51
 20
5571011.85
 11
6537999.54
 21
5571012.06
  0
LINE
  5
6EB
 100
AcDbEntity
  8
000 Inne (niezydentyfikowane)
  6
CONTINUOUS
 62
7
 370
13
 100
AcDbLine
 10
6538000.37
 20
5571011.21
 11
6537998.44
 21
5571011.62
  0
LINE
  5
6EC
 100
AcDbEntity
  8
000 Inne (niezydentyfikowane)
  6
CONTINUOUS
 62
7
 370
13
 100
AcDbLine
 10
6538000.23
 20
5571010.56
 11
6537999.27
 21
5571010.77
  0
LINE
  5
6ED
 100
AcDbEntity
  8
000 Inne (niezydentyfikowane)
  6
CONTINUOUS
 62
7
 370
13
 100
AcDbLine
 10
6538000.09
 20
5571009.92
 11
6537998.17
 21
5571010.33
  0
LINE
  5
6EE
 100
AcDbEntity
  8
000 Inne (niezydentyfikowane)
  6
CONTINUOUS
 62
7
 370
13
 100
AcDbLine
 10
6537999.96
 20
5571009.28
 11
6537999.0
 21
5571009.49
  0
LINE
  5
6EF
 100
AcDbEntity
  8
000 Inne (niezydentyfikowane)
  6
CONTINUOUS
 62
7
 370
13
 100
AcDbLine
 10
6537999.82
 20
5571008.64
 11
6537997.91
 21
5571009.05
  0
LINE
  5
6F0
 100
AcDbEntity
  8
000 Inne (niezydentyfikowane)
  6
CONTINUOUS
 62
7
 370
13
 100
AcDbLine
 10
6537999.68
 20
5571008.01
 11
6537998.73
 21
5571008.21
  0
LINE
  5
6F1
 100
AcDbEntity
  8
000 Inne (niezydentyfikowane)
  6
CONTINUOUS
 62
7
 370
13
 100
AcDbLine
 10
6537999.55
 20
5571007.37
 11
6537997.65
 21
5571007.78
  0
LINE
  5
6F2
 100
AcDbEntity
  8
000 Inne (niezydentyfikowane)
  6
CONTINUOUS
 62
7
 370
13
 100
AcDbLine
 10
6537999.41
 20
5571006.74
 11
6537998.46
 21
5571006.94
  0
LINE
  5
6F3
 100
AcDbEntity
  8
000 Inne (niezydentyfikowane)
  6
CONTINUOUS
 62
7
 370
13
 100
AcDbLine
 10
6537999.27
 20
5571006.11
 11
6537997.39
 21
5571006.51
  0
LINE
  5
6F4
 100
AcDbEntity
  8
000 Inne (niezydentyfikowane)
  6
CONTINUOUS
 62
7
 370
13
 100
AcDbLine
 10
6537999.14
 20
5571005.48
 11
6537998.2
 21
5571005.68
  0
LINE
  5
6F5
 100
AcDbEntity
  8
000 Inne (niezydentyfikowane)
  6
CONTINUOUS
 62
7
 370
13
 100
AcDbLine
 10
6537999.0
 20
5571004.85
 11
6537997.13
 21
5571005.25
  0
LINE
  5
6F6
 100
AcDbEntity
  8
000 Inne (niezydentyfikowane)
  6
CONTINUOUS
 62
7
 370
13
 100
AcDbLine
 10
6537998.87
 20
5571004.22
 11
6537997.93
 21
5571004.42
  0
LINE
  5
6F7
 100
AcDbEntity
  8
000 Inne (niezydentyfikowane)
  6
CONTINUOUS
 62
7
 370
13
 100
AcDbLine
 10
6537998.74
 20
5571003.6
 11
6537996.87
 21
5571004.0
  0
LINE
  5
6F8
 100
AcDbEntity
  8
000 Inne (niezydentyfikowane)
  6
CONTINUOUS
 62
7
 370
13
 100
AcDbLine
 10
6537998.6
 20
5571002.98
 11
6537997.67
 21
5571003.18
  0
LINE
  5
6F9
 100
AcDbEntity
  8
000 Inne (niezydentyfikowane)
  6
CONTINUOUS
 62
7
 370
13
 100
AcDbLine
 10
6537998.47
 20
5571002.35
 11
6537996.61
 21
5571002.75
  0
LINE
  5
6FA
 100
AcDbEntity
  8
000 Inne (niezydentyfikowane)
  6
CONTINUOUS
 62
7
 370
13
 100
AcDbLine
 10
6537998.34
 20
5571001.73
 11
6537997.41
 21
5571001.93
  0
LINE
  5
6FB
 100
AcDbEntity
  8
000 Inne (niezydentyfikowane)
  6
CONTINUOUS
 62
7
 370
13
 100
AcDbLine
 10
6537998.2
 20
5571001.12
 11
6537996.36
 21
5571001.51
  0
LINE
  5
6FC
 100
AcDbEntity
  8
000 Inne (niezydentyfikowane)
  6
CONTINUOUS
 62
7
 370
13
 100
AcDbLine
 10
6537998.07
 20
5571000.5
 11
6537997.15
 21
5571000.7
  0
LINE
  5
6FD
 100
AcDbEntity
  8
000 Inne (niezydentyfikowane)
  6
CONTINUOUS
 62
7
 370
13
 100
AcDbLine
 10
6537997.94
 20
5570999.89
 11
6537996.1
 21
5571000.28
  0
LINE
  5
6FE
 100
AcDbEntity
  8
000 Inne (niezydentyfikowane)
  6
CONTINUOUS
 62
7
 370
13
 100
AcDbLine
 10
6537997.95
 20
5570999.28
 11
6537997.36
 21
5570999.06
  0
LINE
  5
6FF
 100
AcDbEntity
  8
000 Inne (niezydentyfikowane)
  6
CONTINUOUS
 62
7
 370
13
 100
AcDbLine
 10
6537998.12
 20
5570998.84
 11
6537997.01
 21
5570998.42
  0
LINE
  5
700
 100
AcDbEntity
  8
000 Inne (niezydentyfikowane)
  6
CONTINUOUS
 62
7
 370
13
 100
AcDbLine
 10
6537998.26
 20
5570998.46
 11
6537997.74
 21
5570998.26
  0
LINE
  5
701
 100
AcDbEntity
  8
000 Inne (niezydentyfikowane)
  6
CONTINUOUS
 62
7
 370
13
 100
AcDbLine
 10
6537998.4
 20
5570998.1
 11
6537997.4
 21
5570997.72
  0
LINE
  5
702
 100
AcDbEntity
  8
000 Inne (niezydentyfikowane)
  6
CONTINUOUS
 62
7
 370
13
 100
AcDbLine
 10
6537998.53
 20
5570997.76
 11
6537998.05
 21
5570997.57
  0
LINE
  5
703
 100
AcDbEntity
  8
000 Inne (niezydentyfikowane)
  6
CONTINUOUS
 62
7
 370
13
 100
AcDbLine
 10
6537998.65
 20
5570997.43
 11
6537997.74
 21
5570997.09
  0
LINE
  5
704
 100
AcDbEntity
  8
000 Inne (niezydentyfikowane)
  6
CONTINUOUS
 62
7
 370
13
 100
AcDbLine
 10
6537998.77
 20
5570997.12
 11
6537998.33
 21
5570996.96
  0
LINE
  5
705
 100
AcDbEntity
  8
000 Inne (niezydentyfikowane)
  6
CONTINUOUS
 62
7
 370
13
 100
AcDbLine
 10
6537998.88
 20
5570996.83
 11
6537998.05
 21
5570996.52
  0
LINE
  5
706
 100
AcDbEntity
  8
000 Inne (niezydentyfikowane)
  6
CONTINUOUS
 62
7
 370
13
 100
AcDbLine
 10
6537998.98
 20
5570996.55
 11
6537998.59
 21
5570996.4
  0
LINE
  5
707
 100
AcDbEntity
  8
000 Inne (niezydentyfikowane)
  6
CONTINUOUS
 62
7
 370
13
 100
AcDbLine
 10
6537999.09
 20
5570996.28
 11
6537998.34
 21
5570996.0
  0
LINE
  5
708
 100
AcDbEntity
  8
000 Inne (niezydentyfikowane)
  6
CONTINUOUS
 62
7
 370
13
 100
AcDbLine
 10
6537999.18
 20
5570996.03
 11
6537998.83
 21
5570995.9
  0
LINE
  5
709
 100
AcDbEntity
  8
000 Inne (niezydentyfikowane)
  6
CONTINUOUS
 62
7
 370
13
 100
AcDbLine
 10
6537999.27
 20
5570995.79
 11
6537998.6
 21
5570995.53
  0
LINE
  5
70A
 100
AcDbEntity
  8
000 Inne (niezydentyfikowane)
  6
CONTINUOUS
 62
7
 370
13
 100
AcDbLine
 10
6537999.36
 20
5570995.55
 11
6537999.04
 21
5570995.43
  0
LINE
  5
70B
 100
AcDbEntity
  8
000 Inne (niezydentyfikowane)
  6
CONTINUOUS
 62
7
 370
13
 100
AcDbLine
 10
6537999.46
 20
5570995.31
 11
6537998.85
 21
5570995.08
  0
LINE
  5
70C
 100
AcDbEntity
  8
000 Inne (niezydentyfikowane)
  6
CONTINUOUS
 62
7
 370
13
 100
AcDbLine
 10
6537999.55
 20
5570995.07
 11
6537999.26
 21
5570994.96
  0
LINE
  5
70D
 100
AcDbEntity
  8
000 Inne (niezydentyfikowane)
  6
CONTINUOUS
 62
7
 370
13
 100
AcDbLine
 10
6537999.64
 20
5570994.82
 11
6537999.1
 21
5570994.62
  0
LINE
  5
70E
 100
AcDbEntity
  8
000 Inne (niezydentyfikowane)
  6
CONTINUOUS
 62
7
 370
13
 100
AcDbLine
 10
6537999.73
 20
5570994.58
 11
6537999.48
 21
5570994.49
  0
LINE
  5
70F
 100
AcDbEntity
  8
000 Inne (niezydentyfikowane)
  6
CONTINUOUS
 62
7
 370
13
 100
AcDbLine
 10
6537999.82
 20
5570994.34
 11
6537999.35
 21
5570994.16
  0
LINE
  5
710
 100
AcDbEntity
  8
000 Inne (niezydentyfikowane)
  6
CONTINUOUS
 62
7
 370
13
 100
AcDbLine
 10
6537999.91
 20
5570994.1
 11
6537999.69
 21
5570994.02
  0
LINE
  5
711
 100
AcDbEntity
  8
000 Inne (niezydentyfikowane)
  6
CONTINUOUS
 62
7
 370
13
 100
AcDbLine
 10
6538000.0
 20
5570993.86
 11
6537999.6
 21
5570993.71
  0
LINE
  5
712
 100
AcDbEntity
  8
000 Inne (niezydentyfikowane)
  6
CONTINUOUS
 62
7
 370
13
 100
AcDbLine
 10
6538000.1
 20
5570993.62
 11
6537999.91
 21
5570993.55
  0
LINE
  5
713
 100
AcDbEntity
  8
000 Inne (niezydentyfikowane)
  6
CONTINUOUS
 62
7
 370
13
 100
AcDbLine
 10
6538000.19
 20
5570993.38
 11
6537999.85
 21
5570993.25
  0
LINE
  5
714
 100
AcDbEntity
  8
000 Inne (niezydentyfikowane)
  6
CONTINUOUS
 62
7
 370
13
 100
AcDbLine
 10
6538000.28
 20
5570993.13
 11
6538000.13
 21
5570993.08
  0
POLYLINE
  5
715
 100
AcDbEntity
  8
skarpa nieumocniona (powierzchnia)
  6
mz1.8_0.7
 62
7
 370
18
 100
AcDb2dPolyline
 66
1
 10
0
 20
0
 70
129
  0
VERTEX
  5
716
 100
AcDbEntity
  8
0
 100
AcDbVertex
 100
AcDb2dVertex
 10
6538001.87
 20
5571024.41
 42
0.0
 70
0
  0
VERTEX
  5
717
 100
AcDbEntity
  8
0
 100
AcDbVertex
 100
AcDb2dVertex
 10
6538000.58
 20
5571020.14
 42
0.0
 70
0
  0
VERTEX
  5
718
 100
AcDbEntity
  8
0
 100
AcDbVertex
 100
AcDb2dVertex
 10
6538001.46
 20
5571016.29
 42
0.0
 70
0
  0
VERTEX
  5
719
 100
AcDbEntity
  8
0
 100
AcDbVertex
 100
AcDb2dVertex
 10
6537997.86
 20
5570999.52
 42
0.0
 70
0
  0
VERTEX
  5
71A
 100
AcDbEntity
  8
0
 100
AcDbVertex
 100
AcDb2dVertex
 10
6538000.31
 20
5570993.04
 42
0.0
 70
0
  0
VERTEX
  5
71B
 100
AcDbEntity
  8
0
 100
AcDbVertex
 100
AcDb2dVertex
 10
6537999.96
 20
5570993.04
 42
0.0
 70
0
  0
VERTEX
  5
71C
 100
AcDbEntity
  8
0
 100
AcDbVertex
 100
AcDb2dVertex
 10
6537996.07
 20
5571000.13
 42
0.0
 70
0
  0
VERTEX
  5
71D
 100
AcDbEntity
  8
0
 100
AcDbVertex
 100
AcDb2dVertex
 10
6537999.6
 20
5571017.24
 42
0.0
 70
0
  0
VERTEX
  5
71E
 100
AcDbEntity
  8
0
 100
AcDbVertex
 100
AcDb2dVertex
 10
6537997.86
 20
5571021.23
 42
0.0
 70
0
  0
VERTEX
  5
71F
 100
AcDbEntity
  8
0
 100
AcDbVertex
 100
AcDb2dVertex
 10
6537998.41
 20
5571023.32
 42
0.0
 70
0
  0
VERTEX
  5
720
 100
AcDbEntity
  8
0
 100
AcDbVertex
 100
AcDb2dVertex
 10
6537998.9
 20
5571024.99
 42
0.0
 70
0
  0
SEQEND
  5
721
 100
AcDbEntity
  8
0
  0
LINE
  5
722
 100
AcDbEntity
  8
000 Inne (niezydentyfikowane)
  6
CONTINUOUS
 62
7
 370
13
 100
AcDbLine
 10
6538005.09
 20
5571041.65
 11
6538005.01
 21
5571041.67
  0
LINE
  5
723
 100
AcDbEntity
  8
000 Inne (niezydentyfikowane)
  6
CONTINUOUS
 62
7
 370
13
 100
AcDbLine
 10
6538005.03
 20
5571041.39
 11
6538004.96
 21
5571041.4
  0
LINE
  5
724
 100
AcDbEntity
  8
000 Inne (niezydentyfikowane)
  6
CONTINUOUS
 62
7
 370
13
 100
AcDbLine
 10
6538004.97
 20
5571041.12
 11
6538004.78
 21
5571041.17
  0
LINE
  5
725
 100
AcDbEntity
  8
000 Inne (niezydentyfikowane)
  6
CONTINUOUS
 62
7
 370
13
 100
AcDbLine
 10
6538004.91
 20
5571040.86
 11
6538004.79
 21
5571040.89
  0
LINE
  5
726
 100
AcDbEntity
  8
000 Inne (niezydentyfikowane)
  6
CONTINUOUS
 62
7
 370
13
 100
AcDbLine
 10
6538004.84
 20
5571040.59
 11
6538004.56
 21
5571040.66
  0
LINE
  5
727
 100
AcDbEntity
  8
000 Inne (niezydentyfikowane)
  6
CONTINUOUS
 62
7
 370
13
 100
AcDbLine
 10
6538004.78
 20
5571040.33
 11
6538004.62
 21
5571040.37
  0
LINE
  5
728
 100
AcDbEntity
  8
000 Inne (niezydentyfikowane)
  6
CONTINUOUS
 62
7
 370
13
 100
AcDbLine
 10
6538004.72
 20
5571040.06
 11
6538004.34
 21
5571040.15
  0
LINE
  5
729
 100
AcDbEntity
  8
000 Inne (niezydentyfikowane)
  6
CONTINUOUS
 62
7
 370
13
 100
AcDbLine
 10
6538004.65
 20
5571039.8
 11
6538004.44
 21
5571039.85
  0
LINE
  5
72A
 100
AcDbEntity
  8
000 Inne (niezydentyfikowane)
  6
CONTINUOUS
 62
7
 370
13
 100
AcDbLine
 10
6538004.59
 20
5571039.53
 11
6538004.12
 21
5571039.64
  0
LINE
  5
72B
 100
AcDbEntity
  8
000 Inne (niezydentyfikowane)
  6
CONTINUOUS
 62
7
 370
13
 100
AcDbLine
 10
6538004.53
 20
5571039.27
 11
6538004.27
 21
5571039.33
  0
LINE
  5
72C
 100
AcDbEntity
  8
000 Inne (niezydentyfikowane)
  6
CONTINUOUS
 62
7
 370
13
 100
AcDbLine
 10
6538004.46
 20
5571039.0
 11
6538003.9
 21
5571039.14
  0
LINE
  5
72D
 100
AcDbEntity
  8
000 Inne (niezydentyfikowane)
  6
CONTINUOUS
 62
7
 370
13
 100
AcDbLine
 10
6538004.4
 20
5571038.74
 11
6538004.09
 21
5571038.81
  0
LINE
  5
72E
 100
AcDbEntity
  8
000 Inne (niezydentyfikowane)
  6
CONTINUOUS
 62
7
 370
13
 100
AcDbLine
 10
6538004.34
 20
5571038.47
 11
6538003.68
 21
5571038.63
  0
LINE
  5
72F
 100
AcDbEntity
  8
000 Inne (niezydentyfikowane)
  6
CONTINUOUS
 62
7
 370
13
 100
AcDbLine
 10
6538004.28
 20
5571038.21
 11
6538003.92
 21
5571038.29
  0
LINE
  5
730
 100
AcDbEntity
  8
000 Inne (niezydentyfikowane)
  6
CONTINUOUS
 62
7
 370
13
 100
AcDbLine
 10
6538004.22
 20
5571037.96
 11
6538003.46
 21
5571038.14
  0
LINE
  5
731
 100
AcDbEntity
  8
000 Inne (niezydentyfikowane)
  6
CONTINUOUS
 62
7
 370
13
 100
AcDbLine
 10
6538004.16
 20
5571037.71
 11
6538003.76
 21
5571037.81
  0
LINE
  5
732
 100
AcDbEntity
  8
000 Inne (niezydentyfikowane)
  6
CONTINUOUS
 62
7
 370
13
 100
AcDbLine
 10
6538004.1
 20
5571037.45
 11
6538003.25
 21
5571037.65
  0
LINE
  5
733
 100
AcDbEntity
  8
000 Inne (niezydentyfikowane)
  6
CONTINUOUS
 62
7
 370
13
 100
AcDbLine
 10
6538004.03
 20
5571037.17
 11
6538003.58
 21
5571037.28
  0
LINE
  5
734
 100
AcDbEntity
  8
000 Inne (niezydentyfikowane)
  6
CONTINUOUS
 62
7
 370
13
 100
AcDbLine
 10
6538003.96
 20
5571036.88
 11
6538003.01
 21
5571037.11
  0
LINE
  5
735
 100
AcDbEntity
  8
000 Inne (niezydentyfikowane)
  6
CONTINUOUS
 62
7
 370
13
 100
AcDbLine
 10
6538003.89
 20
5571036.57
 11
6538003.38
 21
5571036.69
  0
LINE
  5
736
 100
AcDbEntity
  8
000 Inne (niezydentyfikowane)
  6
CONTINUOUS
 62
7
 370
13
 100
AcDbLine
 10
6538003.81
 20
5571036.24
 11
6538002.74
 21
5571036.49
  0
LINE
  5
737
 100
AcDbEntity
  8
000 Inne (niezydentyfikowane)
  6
CONTINUOUS
 62
7
 370
13
 100
AcDbLine
 10
6538003.73
 20
5571035.89
 11
6538003.16
 21
5571036.03
  0
LINE
  5
738
 100
AcDbEntity
  8
000 Inne (niezydentyfikowane)
  6
CONTINUOUS
 62
7
 370
13
 100
AcDbLine
 10
6538003.64
 20
5571035.52
 11
6538002.44
 21
5571035.81
  0
LINE
  5
739
 100
AcDbEntity
  8
000 Inne (niezydentyfikowane)
  6
CONTINUOUS
 62
7
 370
13
 100
AcDbLine
 10
6538003.54
 20
5571035.13
 11
6538002.91
 21
5571035.28
  0
LINE
  5
73A
 100
AcDbEntity
  8
000 Inne (niezydentyfikowane)
  6
CONTINUOUS
 62
7
 370
13
 100
AcDbLine
 10
6538003.45
 20
5571034.72
 11
6538002.11
 21
5571035.04
  0
LINE
  5
73B
 100
AcDbEntity
  8
000 Inne (niezydentyfikowane)
  6
CONTINUOUS
 62
7
 370
13
 100
AcDbLine
 10
6538003.34
 20
5571034.28
 11
6538002.63
 21
5571034.45
  0
LINE
  5
73C
 100
AcDbEntity
  8
000 Inne (niezydentyfikowane)
  6
CONTINUOUS
 62
7
 370
13
 100
AcDbLine
 10
6538003.23
 20
5571033.81
 11
6538001.73
 21
5571034.17
  0
LINE
  5
73D
 100
AcDbEntity
  8
000 Inne (niezydentyfikowane)
  6
CONTINUOUS
 62
7
 370
13
 100
AcDbLine
 10
6538003.11
 20
5571033.32
 11
6538002.32
 21
5571033.51
  0
LINE
  5
73E
 100
AcDbEntity
  8
000 Inne (niezydentyfikowane)
  6
CONTINUOUS
 62
7
 370
13
 100
AcDbLine
 10
6538002.99
 20
5571032.8
 11
6538001.3
 21
5571033.2
  0
LINE
  5
73F
 100
AcDbEntity
  8
000 Inne (niezydentyfikowane)
  6
CONTINUOUS
 62
7
 370
13
 100
AcDbLine
 10
6538002.86
 20
5571032.25
 11
6538001.97
 21
5571032.46
  0
LINE
  5
740
 100
AcDbEntity
  8
000 Inne (niezydentyfikowane)
  6
CONTINUOUS
 62
7
 370
13
 100
AcDbLine
 10
6538003.08
 20
5571031.74
 11
6538000.13
 21
5571029.5
  0
LINE
  5
741
 100
AcDbEntity
  8
000 Inne (niezydentyfikowane)
  6
CONTINUOUS
 62
7
 370
13
 100
AcDbLine
 10
6538003.73
 20
5571030.88
 11
6538002.46
 21
5571029.92
  0
LINE
  5
742
 100
AcDbEntity
  8
000 Inne (niezydentyfikowane)
  6
CONTINUOUS
 62
7
 370
13
 100
AcDbLine
 10
6538004.58
 20
5571030.37
 11
6538004.25
 21
5571028.34
  0
LINE
  5
743
 100
AcDbEntity
  8
000 Inne (niezydentyfikowane)
  6
CONTINUOUS
 62
7
 370
13
 100
AcDbLine
 10
6538005.35
 20
5571030.25
 11
6538005.18
 21
5571029.23
  0
LINE
  5
744
 100
AcDbEntity
  8
000 Inne (niezydentyfikowane)
  6
CONTINUOUS
 62
7
 370
13
 100
AcDbLine
 10
6538006.05
 20
5571030.14
 11
6538005.72
 21
5571028.11
  0
LINE
  5
745
 100
AcDbEntity
  8
000 Inne (niezydentyfikowane)
  6
CONTINUOUS
 62
7
 370
13
 100
AcDbLine
 10
6538006.73
 20
5571030.03
 11
6538006.56
 21
5571029.01
  0
LINE
  5
746
 100
AcDbEntity
  8
000 Inne (niezydentyfikowane)
  6
CONTINUOUS
 62
7
 370
13
 100
AcDbLine
 10
6538007.41
 20
5571029.92
 11
6538007.08
 21
5571027.89
  0
LINE
  5
747
 100
AcDbEntity
  8
000 Inne (niezydentyfikowane)
  6
CONTINUOUS
 62
7
 370
13
 100
AcDbLine
 10
6538008.08
 20
5571029.81
 11
6538007.92
 21
5571028.79
  0
POLYLINE
  5
748
 100
AcDbEntity
  8
skarpa nieumocniona (powierzchnia)
  6
mz1.8_0.7
 62
7
 370
18
 100
AcDb2dPolyline
 66
1
 10
0
 20
0
 70
129
  0
VERTEX
  5
749
 100
AcDbEntity
  8
0
 100
AcDbVertex
 100
AcDb2dVertex
 10
6538002.82
 20
5571032.08
 42
0.0
 70
0
  0
VERTEX
  5
74A
 100
AcDbEntity
  8
0
 100
AcDbVertex
 100
AcDb2dVertex
 10
6538004.05
 20
5571030.46
 42
0.0
 70
0
  0
VERTEX
  5
74B
 100
AcDbEntity
  8
0
 100
AcDbVertex
 100
AcDb2dVertex
 10
6538008.49
 20
5571029.74
 42
0.0
 70
0
  0
VERTEX
  5
74C
 100
AcDbEntity
  8
0
 100
AcDbVertex
 100
AcDb2dVertex
 10
6538008.37
 20
5571027.68
 42
0.0
 70
0
  0
VERTEX
  5
74D
 100
AcDbEntity
  8
0
 100
AcDbVertex
 100
AcDb2dVertex
 10
6538004.15
 20
5571028.36
 42
0.0
 70
0
  0
VERTEX
  5
74E
 100
AcDbEntity
  8
0
 100
AcDbVertex
 100
AcDb2dVertex
 10
6538002.81
 20
5571028.53
 42
0.0
 70
0
  0
VERTEX
  5
74F
 100
AcDbEntity
  8
0
 100
AcDbVertex
 100
AcDb2dVertex
 10
6538000.08
 20
5571029.26
 42
0.0
 70
0
  0
VERTEX
  5
750
 100
AcDbEntity
  8
0
 100
AcDbVertex
 100
AcDb2dVertex
 10
6538000.47
 20
5571031.29
 42
0.0
 70
0
  0
VERTEX
  5
751
 100
AcDbEntity
  8
0
 100
AcDbVertex
 100
AcDb2dVertex
 10
6538005.21
 20
5571042.14
 42
0.0
 70
0
  0
SEQEND
  5
752
 100
AcDbEntity
  8
0
  0
LINE
  5
753
 100
AcDbEntity
  8
000 Inne (niezydentyfikowane)
  6
CONTINUOUS
 62
7
 370
13
 100
AcDbLine
 10
6537979.5
 20
5570999.05
 11
6537980.59
 21
5570998.99
  0
LINE
  5
754
 100
AcDbEntity
  8
000 Inne (niezydentyfikowane)
  6
CONTINUOUS
 62
7
 370
13
 100
AcDbLine
 10
6537979.53
 20
5570999.57
 11
6537980.63
 21
5570999.51
  0
LINE
  5
755
 100
AcDbEntity
  8
000 Inne (niezydentyfikowane)
  6
CONTINUOUS
 62
7
 370
13
 100
AcDbLine
 10
6537979.57
 20
5571000.26
 11
6537981.98
 21
5571000.12
  0
LINE
  5
756
 100
AcDbEntity
  8
000 Inne (niezydentyfikowane)
  6
CONTINUOUS
 62
7
 370
13
 100
AcDbLine
 10
6537979.61
 20
5571001.03
 11
6537980.93
 21
5571000.96
  0
LINE
  5
757
 100
AcDbEntity
  8
000 Inne (niezydentyfikowane)
  6
CONTINUOUS
 62
7
 370
13
 100
AcDbLine
 10
6537978.76
 20
5571001.06
 11
6537978.82
 21
5571004.21
  0
LINE
  5
758
 100
AcDbEntity
  8
000 Inne (niezydentyfikowane)
  6
CONTINUOUS
 62
7
 370
13
 100
AcDbLine
 10
6537977.76
 20
5571001.07
 11
6537977.79
 21
5571002.44
  0
LINE
  5
759
 100
AcDbEntity
  8
000 Inne (niezydentyfikowane)
  6
CONTINUOUS
 62
7
 370
13
 100
AcDbLine
 10
6537976.83
 20
5571001.09
 11
6537976.87
 21
5571003.24
  0
LINE
  5
75A
 100
AcDbEntity
  8
000 Inne (niezydentyfikowane)
  6
CONTINUOUS
 62
7
 370
13
 100
AcDbLine
 10
6537976.06
 20
5571001.1
 11
6537976.07
 21
5571001.94
  0
LINE
  5
75B
 100
AcDbEntity
  8
000 Inne (niezydentyfikowane)
  6
CONTINUOUS
 62
7
 370
13
 100
AcDbLine
 10
6537975.45
 20
5571001.12
 11
6537975.47
 21
5571002.4
  0
LINE
  5
75C
 100
AcDbEntity
  8
000 Inne (niezydentyfikowane)
  6
CONTINUOUS
 62
7
 370
13
 100
AcDbLine
 10
6537975.0
 20
5571001.01
 11
6537974.78
 21
5571001.43
  0
LINE
  5
75D
 100
AcDbEntity
  8
000 Inne (niezydentyfikowane)
  6
CONTINUOUS
 62
7
 370
13
 100
AcDbLine
 10
6537974.68
 20
5571000.85
 11
6537974.26
 21
5571001.64
  0
LINE
  5
75E
 100
AcDbEntity
  8
000 Inne (niezydentyfikowane)
  6
CONTINUOUS
 62
7
 370
13
 100
AcDbLine
 10
6537974.41
 20
5571000.7
 11
6537974.21
 21
5571001.07
  0
LINE
  5
75F
 100
AcDbEntity
  8
000 Inne (niezydentyfikowane)
  6
CONTINUOUS
 62
7
 370
13
 100
AcDbLine
 10
6537974.15
 20
5571000.56
 11
6537973.77
 21
5571001.27
  0
LINE
  5
760
 100
AcDbEntity
  8
000 Inne (niezydentyfikowane)
  6
CONTINUOUS
 62
7
 370
13
 100
AcDbLine
 10
6537973.91
 20
5571000.43
 11
6537973.73
 21
5571000.77
  0
LINE
  5
761
 100
AcDbEntity
  8
000 Inne (niezydentyfikowane)
  6
CONTINUOUS
 62
7
 370
13
 100
AcDbLine
 10
6537973.68
 20
5571000.31
 11
6537973.34
 21
5571000.95
  0
LINE
  5
762
 100
AcDbEntity
  8
000 Inne (niezydentyfikowane)
  6
CONTINUOUS
 62
7
 370
13
 100
AcDbLine
 10
6537973.45
 20
5571000.19
 11
6537973.29
 21
5571000.49
  0
LINE
  5
763
 100
AcDbEntity
  8
000 Inne (niezydentyfikowane)
  6
CONTINUOUS
 62
7
 370
13
 100
AcDbLine
 10
6537973.23
 20
5571000.07
 11
6537972.93
 21
5571000.64
  0
LINE
  5
764
 100
AcDbEntity
  8
000 Inne (niezydentyfikowane)
  6
CONTINUOUS
 62
7
 370
13
 100
AcDbLine
 10
6537973.0
 20
5570999.95
 11
6537972.86
 21
5571000.21
  0
LINE
  5
765
 100
AcDbEntity
  8
000 Inne (niezydentyfikowane)
  6
CONTINUOUS
 62
7
 370
13
 100
AcDbLine
 10
6537972.77
 20
5570999.83
 11
6537972.51
 21
5571000.32
  0
LINE
  5
766
 100
AcDbEntity
  8
000 Inne (niezydentyfikowane)
  6
CONTINUOUS
 62
7
 370
13
 100
AcDbLine
 10
6537972.54
 20
5570999.71
 11
6537972.42
 21
5570999.94
  0
LINE
  5
767
 100
AcDbEntity
  8
000 Inne (niezydentyfikowane)
  6
CONTINUOUS
 62
7
 370
13
 100
AcDbLine
 10
6537972.31
 20
5570999.59
 11
6537972.09
 21
5571000.01
  0
LINE
  5
768
 100
AcDbEntity
  8
000 Inne (niezydentyfikowane)
  6
CONTINUOUS
 62
7
 370
13
 100
AcDbLine
 10
6537972.08
 20
5570999.46
 11
6537971.98
 21
5570999.66
  0
LINE
  5
769
 100
AcDbEntity
  8
000 Inne (niezydentyfikowane)
  6
CONTINUOUS
 62
7
 370
13
 100
AcDbLine
 10
6537971.86
 20
5570999.34
 11
6537971.67
 21
5570999.7
  0
LINE
  5
76A
 100
AcDbEntity
  8
000 Inne (niezydentyfikowane)
  6
CONTINUOUS
 62
7
 370
13
 100
AcDbLine
 10
6537971.63
 20
5570999.22
 11
6537971.54
 21
5570999.38
  0
LINE
  5
76B
 100
AcDbEntity
  8
000 Inne (niezydentyfikowane)
  6
CONTINUOUS
 62
7
 370
13
 100
AcDbLine
 10
6537971.4
 20
5570999.1
 11
6537971.25
 21
5570999.38
  0
LINE
  5
76C
 100
AcDbEntity
  8
000 Inne (niezydentyfikowane)
  6
CONTINUOUS
 62
7
 370
13
 100
AcDbLine
 10
6537971.17
 20
5570998.98
 11
6537971.11
 21
5570999.1
  0
LINE
  5
76D
 100
AcDbEntity
  8
000 Inne (niezydentyfikowane)
  6
CONTINUOUS
 62
7
 370
13
 100
AcDbLine
 10
6537970.94
 20
5570998.86
 11
6537970.83
 21
5570999.07
  0
LINE
  5
76E
 100
AcDbEntity
  8
000 Inne (niezydentyfikowane)
  6
CONTINUOUS
 62
7
 370
13
 100
AcDbLine
 10
6537970.71
 20
5570998.74
 11
6537970.67
 21
5570998.82
  0
LINE
  5
76F
 100
AcDbEntity
  8
000 Inne (niezydentyfikowane)
  6
CONTINUOUS
 62
7
 370
13
 100
AcDbLine
 10
6537970.49
 20
5570998.62
 11
6537970.41
 21
5570998.76
  0
LINE
  5
770
 100
AcDbEntity
  8
000 Inne (niezydentyfikowane)
  6
CONTINUOUS
 62
7
 370
13
 100
AcDbLine
 10
6537970.26
 20
5570998.49
 11
6537970.23
 21
5570998.55
  0
LINE
  5
771
 100
AcDbEntity
  8
000 Inne (niezydentyfikowane)
  6
CONTINUOUS
 62
7
 370
13
 100
AcDbLine
 10
6537970.03
 20
5570998.37
 11
6537969.99
 21
5570998.44
  0
LINE
  5
772
 100
AcDbEntity
  8
000 Inne (niezydentyfikowane)
  6
CONTINUOUS
 62
7
 370
13
 100
AcDbLine
 10
6537969.8
 20
5570998.25
 11
6537969.79
 21
5570998.27
  0
POLYLINE
  5
773
 100
AcDbEntity
  8
skarpa nieumocniona (powierzchnia)
  6
mz1.8_0.7
 62
7
 370
18
 100
AcDb2dPolyline
 66
1
 10
0
 20
0
 70
129
  0
VERTEX
  5
774
 100
AcDbEntity
  8
0
 100
AcDbVertex
 100
AcDb2dVertex
 10
6537982.69
 20
5571002.09
 42
0.0
 70
0
  0
VERTEX
  5
775
 100
AcDbEntity
  8
0
 100
AcDbVertex
 100
AcDb2dVertex
 10
6537981.73
 20
5570999.43
 42
0.0
 70
0
  0
VERTEX
  5
776
 100
AcDbEntity
  8
0
 100
AcDbVertex
 100
AcDb2dVertex
 10
6537979.47
 20
5570998.55
 42
0.0
 70
0
  0
VERTEX
  5
777
 100
AcDbEntity
  8
0
 100
AcDbVertex
 100
AcDb2dVertex
 10
6537979.61
 20
5571001.04
 42
0.0
 70
0
  0
VERTEX
  5
778
 100
AcDbEntity
  8
0
 100
AcDbVertex
 100
AcDb2dVertex
 10
6537975.2
 20
5571001.12
 42
0.0
 70
0
  0
VERTEX
  5
779
 100
AcDbEntity
  8
0
 100
AcDbVertex
 100
AcDb2dVertex
 10
6537969.59
 20
5570998.14
 42
0.0
 70
0
  0
VERTEX
  5
77A
 100
AcDbEntity
  8
0
 100
AcDbVertex
 100
AcDb2dVertex
 10
6537974.52
 20
5571001.83
 42
0.0
 70
0
  0
VERTEX
  5
77B
 100
AcDbEntity
  8
0
 100
AcDbVertex
 100
AcDb2dVertex
 10
6537978.46
 20
5571004.2
 42
0.0
 70
0
  0
VERTEX
  5
77C
 100
AcDbEntity
  8
0
 100
AcDbVertex
 100
AcDb2dVertex
 10
6537981.76
 20
5571004.3
 42
0.0
 70
0
  0
SEQEND
  5
77D
 100
AcDbEntity
  8
0
  0
POLYLINE
  5
77E
 100
AcDbEntity
  8
jezdnia (powierzchnia)
  6
mz3.0_1.0
 62
7
 370
18
 100
AcDb2dPolyline
 66
1
 10
0
 20
0
 70
128
  0
VERTEX
  5
77F
 100
AcDbEntity
  8
0
 100
AcDbVertex
 100
AcDb2dVertex
 10
6537986.16
 20
5571002.02
 42
0.0
 70
0
  0
VERTEX
  5
780
 100
AcDbEntity
  8
0
 100
AcDbVertex
 100
AcDb2dVertex
 10
6537987.83
 20
5570998.35
 42
0.0
 70
0
  0
VERTEX
  5
781
 100
AcDbEntity
  8
0
 100
AcDbVertex
 100
AcDb2dVertex
 10
6537989.25
 20
5570995.13
 42
0.0
 70
0
  0
VERTEX
  5
782
 100
AcDbEntity
  8
0
 100
AcDbVertex
 100
AcDb2dVertex
 10
6537987.57
 20
5570994.5
 42
0.0
 70
0
  0
VERTEX
  5
783
 100
AcDbEntity
  8
0
 100
AcDbVertex
 100
AcDb2dVertex
 10
6537986.646
 20
5570993.04
 42
0.0
 70
0
  0
SEQEND
  5
784
 100
AcDbEntity
  8
0
  0
POLYLINE
  5
785
 100
AcDbEntity
  8
jezdnia (powierzchnia)
  6
mz3.0_1.0
 62
7
 370
18
 100
AcDb2dPolyline
 66
1
 10
0
 20
0
 70
128
  0
VERTEX
  5
786
 100
AcDbEntity
  8
0
 100
AcDbVertex
 100
AcDb2dVertex
 10
6537982.548
 20
5570993.04
 42
0.0
 70
0
  0
VERTEX
  5
787
 100
AcDbEntity
  8
0
 100
AcDbVertex
 100
AcDb2dVertex
 10
6537986.16
 20
5571002.02
 42
0.0
 70
0
  0
SEQEND
  5
788
 100
AcDbEntity
  8
0
  0
LINE
  5
789
 100
AcDbEntity
  8
000 Inne (niezydentyfikowane)
  6
CONTINUOUS
 62
7
 370
13
 100
AcDbLine
 10
6537989.72
 20
5570993.04
 11
6537990.29
 21
5570993.61
  0
LINE
  5
78A
 100
AcDbEntity
  8
000 Inne (niezydentyfikowane)
  6
CONTINUOUS
 62
7
 370
13
 100
AcDbLine
 10
6537988.87
 20
5570993.04
 11
6537989.26
 21
5570993.43
  0
LINE
  5
78B
 100
AcDbEntity
  8
000 Inne (niezydentyfikowane)
  6
CONTINUOUS
 62
7
 370
13
 100
AcDbLine
 10
6537988.12
 20
5570993.19
 11
6537989.58
 21
5570994.65
  0
LINE
  5
78C
 100
AcDbEntity
  8
000 Inne (niezydentyfikowane)
  6
CONTINUOUS
 62
7
 370
13
 100
AcDbLine
 10
6537987.65
 20
5570993.62
 11
6537987.43
 21
5570993.77
  0
LINE
  5
78D
 100
AcDbEntity
  8
000 Inne (niezydentyfikowane)
  6
CONTINUOUS
 62
7
 370
13
 100
AcDbLine
 10
6537987.49
 20
5570993.37
 11
6537987.03
 21
5570993.65
  0
LINE
  5
78E
 100
AcDbEntity
  8
000 Inne (niezydentyfikowane)
  6
CONTINUOUS
 62
7
 370
13
 100
AcDbLine
 10
6537987.33
 20
5570993.11
 11
6537987.1
 21
5570993.25
  0
LINE
  5
78F
 100
AcDbEntity
  8
000 Inne (niezydentyfikowane)
  6
CONTINUOUS
 62
7
 370
13
 100
AcDbLine
 10
6537986.869
 20
5570993.04
 11
6537986.71
 21
5570993.14
  0
POLYLINE
  5
790
 100
AcDbEntity
  8
skarpa nieumocniona (powierzchnia)
  6
mz1.8_0.7
 62
7
 370
18
 100
AcDb2dPolyline
 66
1
 10
0
 20
0
 70
129
  0
VERTEX
  5
791
 100
AcDbEntity
  8
0
 100
AcDbVertex
 100
AcDb2dVertex
 10
6537990.69
 20
5570993.04
 42
0.0
 70
0
  0
VERTEX
  5
792
 100
AcDbEntity
  8
0
 100
AcDbVertex
 100
AcDb2dVertex
 10
6537988.28
 20
5570993.04
 42
0.0
 70
0
  0
VERTEX
  5
793
 100
AcDbEntity
  8
0
 100
AcDbVertex
 100
AcDb2dVertex
 10
6537987.67
 20
5570993.65
 42
0.0
 70
0
  0
VERTEX
  5
794
 100
AcDbEntity
  8
0
 100
AcDbVertex
 100
AcDb2dVertex
 10
6537987.29
 20
5570993.04
 42
0.0
 70
0
  0
VERTEX
  5
795
 100
AcDbEntity
  8
0
 100
AcDbVertex
 100
AcDb2dVertex
 10
6537986.65
 20
5570993.04
 42
0.0
 70
0
  0
VERTEX
  5
796
 100
AcDbEntity
  8
0
 100
AcDbVertex
 100
AcDb2dVertex
 10
6537987.57
 20
5570994.5
 42
0.0
 70
0
  0
VERTEX
  5
797
 100
AcDbEntity
  8
0
 100
AcDbVertex
 100
AcDb2dVertex
 10
6537989.25
 20
5570995.13
 42
0.0
 70
0
  0
SEQEND
  5
798
 100
AcDbEntity
  8
0
  0
LINE
  5
799
 100
AcDbEntity
  8
000 Inne (niezydentyfikowane)
  6
CONTINUOUS
 62
7
 370
13
 100
AcDbLine
 10
6537946.52
 20
5571046.91
 11
6537947.39
 21
5571042.19
  0
LINE
  5
79A
 100
AcDbEntity
  8
000 Inne (niezydentyfikowane)
  6
CONTINUOUS
 62
7
 370
13
 100
AcDbLine
 10
6537947.95
 20
5571047.17
 11
6537948.4
 21
5571044.7
  0
LINE
  5
79B
 100
AcDbEntity
  8
000 Inne (niezydentyfikowane)
  6
CONTINUOUS
 62
7
 370
13
 100
AcDbLine
 10
6537949.54
 20
5571047.46
 11
6537950.53
 21
5571042.04
  0
LINE
  5
79C
 100
AcDbEntity
  8
000 Inne (niezydentyfikowane)
  6
CONTINUOUS
 62
7
 370
13
 100
AcDbLine
 10
6537951.3
 20
5571047.78
 11
6537951.84
 21
5571044.78
  0
LINE
  5
79D
 100
AcDbEntity
  8
000 Inne (niezydentyfikowane)
  6
CONTINUOUS
 62
7
 370
13
 100
AcDbLine
 10
6537953.24
 20
5571048.14
 11
6537954.33
 21
5571041.5
  0
LINE
  5
79E
 100
AcDbEntity
  8
000 Inne (niezydentyfikowane)
  6
CONTINUOUS
 62
7
 370
13
 100
AcDbLine
 10
6537955.36
 20
5571048.27
 11
6537954.84
 21
5571044.88
  0
LINE
  5
79F
 100
AcDbEntity
  8
000 Inne (niezydentyfikowane)
  6
CONTINUOUS
 62
7
 370
13
 100
AcDbLine
 10
6537957.49
 20
5571047.52
 11
6537955.31
 21
5571041.35
  0
LINE
  5
7A0
 100
AcDbEntity
  8
000 Inne (niezydentyfikowane)
  6
CONTINUOUS
 62
7
 370
13
 100
AcDbLine
 10
6537959.56
 20
5571046.79
 11
6537958.54
 21
5571043.9
  0
LINE
  5
7A1
 100
AcDbEntity
  8
000 Inne (niezydentyfikowane)
  6
CONTINUOUS
 62
7
 370
13
 100
AcDbLine
 10
6537961.52
 20
5571046.1
 11
6537959.46
 21
5571040.23
  0
LINE
  5
7A2
 100
AcDbEntity
  8
000 Inne (niezydentyfikowane)
  6
CONTINUOUS
 62
7
 370
13
 100
AcDbLine
 10
6537963.48
 20
5571045.41
 11
6537962.44
 21
5571042.44
  0
LINE
  5
7A3
 100
AcDbEntity
  8
000 Inne (niezydentyfikowane)
  6
CONTINUOUS
 62
7
 370
13
 100
AcDbLine
 10
6537965.46
 20
5571044.71
 11
6537962.83
 21
5571038.88
  0
LINE
  5
7A4
 100
AcDbEntity
  8
000 Inne (niezydentyfikowane)
  6
CONTINUOUS
 62
7
 370
13
 100
AcDbLine
 10
6537967.32
 20
5571043.7
 11
6537965.85
 21
5571040.98
  0
LINE
  5
7A5
 100
AcDbEntity
  8
000 Inne (niezydentyfikowane)
  6
CONTINUOUS
 62
7
 370
13
 100
AcDbLine
 10
6537969.15
 20
5571042.71
 11
6537966.31
 21
5571037.48
  0
LINE
  5
7A6
 100
AcDbEntity
  8
000 Inne (niezydentyfikowane)
  6
CONTINUOUS
 62
7
 370
13
 100
AcDbLine
 10
6537970.91
 20
5571041.75
 11
6537969.53
 21
5571039.2
  0
LINE
  5
7A7
 100
AcDbEntity
  8
000 Inne (niezydentyfikowane)
  6
CONTINUOUS
 62
7
 370
13
 100
AcDbLine
 10
6537972.63
 20
5571040.82
 11
6537969.93
 21
5571035.83
  0
LINE
  5
7A8
 100
AcDbEntity
  8
000 Inne (niezydentyfikowane)
  6
CONTINUOUS
 62
7
 370
13
 100
AcDbLine
 10
6537974.31
 20
5571039.91
 11
6537972.99
 21
5571037.47
  0
LINE
  5
7A9
 100
AcDbEntity
  8
000 Inne (niezydentyfikowane)
  6
CONTINUOUS
 62
7
 370
13
 100
AcDbLine
 10
6537975.95
 20
5571039.02
 11
6537973.37
 21
5571034.25
  0
LINE
  5
7AA
 100
AcDbEntity
  8
000 Inne (niezydentyfikowane)
  6
CONTINUOUS
 62
7
 370
13
 100
AcDbLine
 10
6537977.55
 20
5571038.15
 11
6537976.29
 21
5571035.83
  0
LINE
  5
7AB
 100
AcDbEntity
  8
000 Inne (niezydentyfikowane)
  6
CONTINUOUS
 62
7
 370
13
 100
AcDbLine
 10
6537979.12
 20
5571037.31
 11
6537976.65
 21
5571032.76
  0
LINE
  5
7AC
 100
AcDbEntity
  8
000 Inne (niezydentyfikowane)
  6
CONTINUOUS
 62
7
 370
13
 100
AcDbLine
 10
6537980.65
 20
5571036.48
 11
6537979.44
 21
5571034.25
  0
LINE
  5
7AD
 100
AcDbEntity
  8
000 Inne (niezydentyfikowane)
  6
CONTINUOUS
 62
7
 370
13
 100
AcDbLine
 10
6537982.14
 20
5571035.67
 11
6537979.79
 21
5571031.32
  0
LINE
  5
7AE
 100
AcDbEntity
  8
000 Inne (niezydentyfikowane)
  6
CONTINUOUS
 62
7
 370
13
 100
AcDbLine
 10
6537983.6
 20
5571034.88
 11
6537982.45
 21
5571032.76
  0
LINE
  5
7AF
 100
AcDbEntity
  8
000 Inne (niezydentyfikowane)
  6
CONTINUOUS
 62
7
 370
13
 100
AcDbLine
 10
6537985.03
 20
5571034.1
 11
6537982.78
 21
5571029.96
  0
LINE
  5
7B0
 100
AcDbEntity
  8
000 Inne (niezydentyfikowane)
  6
CONTINUOUS
 62
7
 370
13
 100
AcDbLine
 10
6537986.44
 20
5571033.39
 11
6537985.42
 21
5571031.3
  0
LINE
  5
7B1
 100
AcDbEntity
  8
000 Inne (niezydentyfikowane)
  6
CONTINUOUS
 62
7
 370
13
 100
AcDbLine
 10
6537987.84
 20
5571032.71
 11
6537985.83
 21
5571028.57
  0
LINE
  5
7B2
 100
AcDbEntity
  8
000 Inne (niezydentyfikowane)
  6
CONTINUOUS
 62
7
 370
13
 100
AcDbLine
 10
6537989.23
 20
5571032.04
 11
6537989.01
 21
5571031.59
  0
POLYLINE
  5
7B3
 100
AcDbEntity
  8
skarpa nieumocniona (powierzchnia)
  6
mz1.8_0.7
 62
7
 370
18
 100
AcDb2dPolyline
 66
1
 10
0
 20
0
 70
129
  0
VERTEX
  5
7B4
 100
AcDbEntity
  8
0
 100
AcDbVertex
 100
AcDb2dVertex
 10
6537965.42
 20
5571044.73
 42
0.0
 70
0
  0
VERTEX
  5
7B5
 100
AcDbEntity
  8
0
 100
AcDbVertex
 100
AcDb2dVertex
 10
6537985.46
 20
5571033.87
 42
0.0
 70
0
  0
VERTEX
  5
7B6
 100
AcDbEntity
  8
0
 100
AcDbVertex
 100
AcDb2dVertex
 10
6537989.3
 20
5571032.0
 42
0.0
 70
0
  0
VERTEX
  5
7B7
 100
AcDbEntity
  8
0
 100
AcDbVertex
 100
AcDb2dVertex
 10
6537986.96
 20
5571028.05
 42
0.0
 70
0
  0
VERTEX
  5
7B8
 100
AcDbEntity
  8
0
 100
AcDbVertex
 100
AcDb2dVertex
 10
6537966.06
 20
5571037.59
 42
0.0
 70
0
  0
VERTEX
  5
7B9
 100
AcDbEntity
  8
0
 100
AcDbVertex
 100
AcDb2dVertex
 10
6537957.42
 20
5571041.05
 42
0.0
 70
0
  0
VERTEX
  5
7BA
 100
AcDbEntity
  8
0
 100
AcDbVertex
 100
AcDb2dVertex
 10
6537949.25
 20
5571042.23
 42
0.0
 70
0
  0
VERTEX
  5
7BB
 100
AcDbEntity
  8
0
 100
AcDbVertex
 100
AcDb2dVertex
 10
6537944.25
 20
5571042.12
 42
0.0
 70
0
  0
VERTEX
  5
7BC
 100
AcDbEntity
  8
0
 100
AcDbVertex
 100
AcDb2dVertex
 10
6537944.34
 20
5571044.69
 42
0.0
 70
0
  0
VERTEX
  5
7BD
 100
AcDbEntity
  8
0
 100
AcDbVertex
 100
AcDb2dVertex
 10
6537946.03
 20
5571046.82
 42
0.0
 70
0
  0
VERTEX
  5
7BE
 100
AcDbEntity
  8
0
 100
AcDbVertex
 100
AcDb2dVertex
 10
6537954.88
 20
5571048.44
 42
0.0
 70
0
  0
SEQEND
  5
7BF
 100
AcDbEntity
  8
0
  0
TEXT
  5
7C0
 100
AcDbEntity
  8
Ramki i opis wydruku
  6
CONTINUOUS
 62
7
 370
13
 100
AcDbText
 10
6538052.35
 20
5571154.59
 40
1.6
  1
śląskie
 50
0.0
 41
0.9
 51
15.0
 72
0
 100
AcDbText
 73
0
  0
TEXT
  5
7C1
 100
AcDbEntity
  8
Ramki i opis wydruku
  6
CONTINUOUS
 62
7
 370
13
 100
AcDbText
 10
6538052.35
 20
5571152.19
 40
1.6
  1
gliwicki
 50
0.0
 41
0.9
 51
15.0
 72
0
 100
AcDbText
 73
0
  0
TEXT
  5
7C2
 100
AcDbEntity
  8
Ramki i opis wydruku
  6
CONTINUOUS
 62
7
 370
13
 100
AcDbText
 10
6538052.35
 20
5571149.79
 40
1.6
  1
240506_5, Sośnicowice
 50
0.0
 41
0.9
 51
15.0
 72
0
 100
AcDbText
 73
0
  0
TEXT
  5
7C3
 100
AcDbEntity
  8
Ramki i opis wydruku
  6
CONTINUOUS
 62
7
 370
13
 100
AcDbText
 10
6538052.35
 20
5571147.39
 40
1.6
  1
0003, Łany Wielkie
 50
0.0
 41
0.9
 51
15.0
 72
0
 100
AcDbText
 73
0
  0
TEXT
  5
7C4
 100
AcDbEntity
  8
Ramki i opis wydruku
  6
CONTINUOUS
 62
7
 370
13
 100
AcDbText
 10
6538051.34
 20
5571147.39
 11
6538051.34
 21
5571147.39
 40
1.6
  1
Obręb:
 50
0.0
 41
0.9
 51
15.0
 72
2
 100
AcDbText
 73
0
  0
TEXT
  5
7C5
 100
AcDbEntity
  8
Ramki i opis wydruku
  6
CONTINUOUS
 62
7
 370
13
 100
AcDbText
 10
6538051.35
 20
5571149.79
 11
6538051.35
 21
5571149.79
 40
1.6
  1
Jednostka ewidencyjna:
 50
0.0
 41
0.9
 51
15.0
 72
2
 100
AcDbText
 73
0
  0
TEXT
  5
7C6
 100
AcDbEntity
  8
Ramki i opis wydruku
  6
CONTINUOUS
 62
7
 370
13
 100
AcDbText
 10
6538051.34
 20
5571152.19
 11
6538051.34
 21
5571152.19
 40
1.6
  1
Powiat:
 50
0.0
 41
0.9
 51
15.0
 72
2
 100
AcDbText
 73
0
  0
TEXT
  5
7C7
 100
AcDbEntity
  8
Ramki i opis wydruku
  6
CONTINUOUS
 62
7
 370
13
 100
AcDbText
 10
6538051.35
 20
5571154.59
 11
6538051.35
 21
5571154.59
 40
1.6
  1
Województwo:
 50
0.0
 41
0.9
 51
15.0
 72
2
 100
AcDbText
 73
0
  0
TEXT
  5
7C8
 100
AcDbEntity
  8
Ramki i opis wydruku
  6
CONTINUOUS
 62
7
 370
13
 100
AcDbText
 10
6538051.62
 20
5571144.86
 11
6538051.62
 21
5571144.86
 40
1.6
  1
Działka:
 50
0.0
 41
0.9
 51
15.0
 72
2
 100
AcDbText
 73
0
  0
TEXT
  5
7C9
 100
AcDbEntity
  8
Ramki i opis wydruku
  6
CONTINUOUS
 62
7
 370
13
 100
AcDbText
 10
6538052.41
 20
5571144.77
 40
1.6
  1
480/75
 50
0.0
 41
0.9
 51
15.0
 72
0
 100
AcDbText
 73
0
  0
TEXT
  5
7CA
 100
AcDbEntity
  8
Ramki i opis wydruku
  6
CONTINUOUS
 62
7
 370
13
 100
AcDbText
 10
6538052.12
 20
5571137.16
 11
6538052.12
 21
5571137.16
 40
1.28
  1
Układ wsp. płaskich:2000 strefa 6 (18°), układ odn.:Kronsztadt 86
 50
0.0
 41
0.9
 51
15.0
 72
1
 100
AcDbText
 73
0
  0
TEXT
  5
7CB
 100
AcDbEntity
  8
Ramki i opis wydruku
  6
CONTINUOUS
 62
7
 370
13
 100
AcDbText
 10
6538040.92
 20
5571134.3
 11
6538040.92
 21
5571134.3
 40
1.6
  1
Sekcje mapy: 6.130.25.19.4
 50
0.0
 41
0.9
 51
15.0
 72
1
 100
AcDbText
 73
0
  0
TEXT
  5
7CC
 100
AcDbEntity
  8
Ramki i opis wydruku
  6
CONTINUOUS
 62
7
 370
13
 100
AcDbText
 10
6538051.5
 20
5571139.63
 11
6538051.5
 21
5571139.63
 40
1.6
  1
Położenie:
 50
0.0
 41
0.9
 51
15.0
 72
2
 100
AcDbText
 73
0
  0
TEXT
  5
7CD
 100
AcDbEntity
  8
Ramki i opis wydruku
  6
CONTINUOUS
 62
7
 370
13
 100
AcDbText
 10
6538052.48
 20
5571139.76
 40
1.6
  1
ul. Szkolna 7
 50
0.0
 41
0.9
 51
15.0
 72
0
 100
AcDbText
 73
0
  0
TEXT
  5
7CE
 100
AcDbEntity
  8
Ramki i opis wydruku
  6
CONTINUOUS
 62
7
 370
13
 100
AcDbText
 10
6537955.61
 20
5571129.76
 11
6537955.61
 21
5571129.76
 40
2.0
  1
SKALA 1:1000
 50
0.0
 41
0.9
 51
15.0
 72
1
 100
AcDbText
 73
0
  0
TEXT
  5
7CF
 100
AcDbEntity
  8
Ramki i opis wydruku
  6
CONTINUOUS
 62
1
 370
18
 100
AcDbText
 10
6537957.7
 20
5571125.81
 11
6537957.7
 21
5571125.81
 40
1.6
  1
WGN-RZG.6640.1.433.2018 et.2
 50
0.0
 41
0.9
 51
15.0
 72
1
 100
AcDbText
 73
0
  0
TEXT
  5
7D0
 100
AcDbEntity
  8
996-Tekst dodatkowy mały
  6
CONTINUOUS
 62
7
 370
18
 100
AcDbText
 10
6537894.81
 20
5570979.09
 40
1.625
  1
Data opracowania mapy: 26.04.2018r.
 50
0.0
 41
0.9
 51
15.0
 72
0
 100
AcDbText
 73
0
  0
TEXT
  5
7D1
 100
AcDbEntity
  8
996-Tekst dodatkowy mały
  6
CONTINUOUS
 62
7
 370
18
 100
AcDbText
 10
6537893.93
 20
5570972.53
 40
1.625
  1
Sporządził:
 50
0.0
 41
0.9
 51
15.0
 72
0
 100
AcDbText
 73
0
  0
TEXT
  5
7D2
 100
AcDbEntity
  8
Ramki i opis wydruku
  6
CONTINUOUS
 62
7
 370
13
 100
AcDbText
 10
6538057.22
 20
5571087.22
 11
6538057.22
 21
5571087.22
 40
1.28
  1
szkic orientacyjny
 50
0.0
 41
0.9
 51
15.0
 72
1
 100
AcDbText
 73
0
  0
TEXT
  5
7D3
 100
AcDbEntity
  8
Ramki i opis wydruku
  6
CONTINUOUS
 62
7
 370
13
 100
AcDbText
 10
6537957.1
 20
5571146.55
 11
6537957.1
 21
5571146.55
 40
3.38
  1
MAPA Z PROJEKTEM PODZIAŁU NIERUCHOMOŚCI 
 50
0.0
 41
0.9
 51
15.0
 72
1
 100
AcDbText
 73
0
  0
TEXT
  5
7D4
 100
AcDbEntity
  8
Ramki i opis wydruku
  6
CONTINUOUS
 62
7
 370
13
 100
AcDbText
 10
6537956.4
 20
5571141.7
 11
6537956.4
 21
5571141.7
 40
2.442
  1
na podst. ustawy z 10 kwietnia 2003r. o szczególnych zasadach przygotowania
 50
0.0
 41
0.9
 51
15.0
 72
1
 100
AcDbText
 73
0
  0
TEXT
  5
7D5
 100
AcDbEntity
  8
Ramki i opis wydruku
  6
CONTINUOUS
 62
7
 370
13
 100
AcDbText
 10
6537957.94
 20
5571137.9
 11
6537957.94
 21
5571137.9
 40
2.442
  1
i realizacji inwestycji w zakresie dróg publicznych
 50
0.0
 41
0.9
 51
15.0
 72
1
 100
AcDbText
 73
0
  0
TEXT
  5
7D6
 100
AcDbEntity
  8
Ramki i opis wydruku
  6
CONTINUOUS
 62
7
 370
13
 100
AcDbText
 10
6538051.61
 20
5571142.25
 11
6538051.61
 21
5571142.25
 40
1.6
  1
Arkusz:
 50
0.0
 41
0.9
 51
15.0
 72
2
 100
AcDbText
 73
0
  0
TEXT
  5
7D7
 100
AcDbEntity
  8
Ramki i opis wydruku
  6
CONTINUOUS
 62
7
 370
13
 100
AcDbText
 10
6538052.41
 20
5571142.16
 40
1.6
  1
1
 50
0.0
 41
0.9
 51
15.0
 72
0
 100
AcDbText
 73
0
  0
INSERT
  5
7D8
 100
AcDbEntity
  8
Znak północy
  6
CONTINUOUS
 62
7
 370
18
 100
AcDbBlockReference
 66
0
  2
W_POL
 10
6537899.02
 20
5571055.22
 50
0.0
 41
1.0
 42
1.0
  0
TEXT
  5
7D9
 100
AcDbEntity
  8
211-Nr działki
  6
CONTINUOUS
 62
7
 370
18
 100
AcDbText
 10
6537999.74
 20
5571046.3
 40
1.8
  1
656/82
 50
0.0
 41
0.9
 51
15.0
 72
0
 100
AcDbText
 73
0
  0
TEXT
  5
7DA
 100
AcDbEntity
  8
994-Nazwa ulicy
  6
CONTINUOUS
 62
7
 370
18
 100
AcDbText
 10
6538008.32
 20
5571058.22
 40
1.5
  1
Szkolna
 50
56.659
 41
0.9
 51
15.0
 72
0
 100
AcDbText
 73
0
  0
TEXT
  5
7DB
 100
AcDbEntity
  8
210-Oznaczenie użytku
  6
CONTINUOUS
 62
3
 370
18
 100
AcDbText
 10
6538002.16
 20
5571050.03
 40
1.8
  1
dr
 50
0.0
 41
0.9
 51
15.0
 72
0
 100
AcDbText
 73
0
  0
INSERT
  5
7DC
 100
AcDbEntity
  8
Wstawianie ramki sekcyjnej z opisem
  6
CONTINUOUS
 62
7
 370
13
 100
AcDbBlockReference
 66
1
  2
RAMKA1000K
 10
6537600.0
 20
5571000.0
 50
0.0
 41
1.0
 42
1.0
  0
ATTRIB
  5
7DD
 100
AcDbEntity
  8
0
 100
AcDbText
 10
0.0
 20
0.0
 40
0.0
  1
1
 50
0.0
 41
1.0
 51
0.0
 72
0
 11
0.0
 21
0.0
 100
AcDbAttribute
  2
UKLADID
 70
1
 74
1
  0
SEQEND
  5
7DE
 100
AcDbEntity
  8
0
  0
INSERT
  5
7DF
 100
AcDbEntity
  8
Wstawianie ramki sekcyjnej z opisem
  6
CONTINUOUS
 62
7
 370
13
 100
AcDbBlockReference
 66
1
  2
RAMKA1000K
 10
6537600.0
 20
5570500.0
 50
0.0
 41
1.0
 42
1.0
  0
ATTRIB
  5
7E0
 100
AcDbEntity
  8
0
 100
AcDbText
 10
0.0
 20
0.0
 40
0.0
  1
1
 50
0.0
 41
1.0
 51
0.0
 72
0
 11
0.0
 21
0.0
 100
AcDbAttribute
  2
UKLADID
 70
1
 74
1
  0
SEQEND
  5
7E1
 100
AcDbEntity
  8
0
  0
ENDSEC
  0
SECTION
  2
OBJECTS
  0
DICTIONARY
  5
C
 100
AcDbDictionary
 280
0
 281
1
  3
ACAD_GROUP
 350
D
  3
ACAD_LAYOUT
 350
1A
  3
ACAD_MLINESTYLE
 350
17
  0
DICTIONARY
  5
D
 100
AcDbDictionary
 280
0
 281
1
  0
DICTIONARY
  5
17
 100
AcDbDictionary
 280
0
 281
1
  3
Standard
 350
18
  3
217a-1000
 350
54
  3
218a-1000
 350
71
  3
450-1000
 350
3C
  0
MLINESTYLE
  5
18
 100
AcDbMlineStyle
  2
STANDARD
 70
272
  3

 51
90.0
 52
90.0
 71
2
 49
0.5
 62
256
  6
BYLAYER
 49
-0.5
 62
256
  6
BYLAYER
  0
MLINESTYLE
  5
54
 100
AcDbMlineStyle
  2
217a-1000
 70
272
  3

 51
90.0
 52
90.0
 71
1
 49
0.5
 62
3
  6
2.1_0.7
  0
MLINESTYLE
  5
71
 100
AcDbMlineStyle
  2
218a-1000
 70
272
  3

 51
90.0
 52
90.0
 71
1
 49
0.5
 62
3
  6
0.7_0.7
  0
MLINESTYLE
  5
3C
 100
AcDbMlineStyle
  2
450-1000
 70
272
  3

 51
90.0
 52
90.0
 71
2
 49
0.35
 62
0
  6
450-1000k
 49
-0.35
 62
0
  6
BYLAYER
  0
DICTIONARY
  5
1A
 100
AcDbDictionary
 280
0
 281
1
  3
Layout1
 350
1E
  3
Model
 350
22
  3
Layout2
 350
26
  0
LAYOUT
  5
22
 100
AcDbPlotSettings
  1

  2
 
  4

  6

 40
0.0
 41
0.0
 42
0.0
 43
0.0
 44
0.0
 45
0.0
 46
0.0
 47
0.0
 48
0.0
 49
0.0
 140
0.0
 141
0.0
 142
1.0
 143
1.0
 70
1712
 72
0
 73
0
 74
0
  7

 75
0
 147
1.0
 148
0.0
 149
0.0
 100
AcDbLayout
  1
Model
 70
1
 71
0
 10
0.0
 20
0.0
 11
12.0
 21
9.0
 12
0.0
 22
0.0
 32
0.0
 14
0.0
 24
0.0
 34
0.0
 15
0.0
 25
0.0
 35
0.0
 146
0.0
 13
0.0
 23
0.0
 33
0.0
 16
1.0
 26
0.0
 36
0.0
 17
0.0
 27
1.0
 37
0.0
 76
0
 330
1F
  0
LAYOUT
  5
1E
 100
AcDbPlotSettings
  1

  2
 
  4

  6

 40
0.0
 41
0.0
 42
0.0
 43
0.0
 44
0.0
 45
0.0
 46
0.0
 47
0.0
 48
0.0
 49
0.0
 140
0.0
 141
0.0
 142
1.0
 143
1.0
 70
688
 72
0
 73
0
 74
5
  7

 75
16
 147
1.0
 148
0.0
 149
0.0
 100
AcDbLayout
  1
Layout1
 70
1
 71
1
 10
0.0
 20
0.0
 11
420.0
 21
297.0
 12
0.0
 22
0.0
 32
0.0
 14
0.0
 24
0.0
 34
0.0
 15
0.0
 25
0.0
 35
0.0
 146
0.0
 13
0.0
 23
0.0
 33
0.0
 16
1.0
 26
0.0
 36
0.0
 17
0.0
 27
1.0
 37
0.0
 76
0
 330
1B
  0
LAYOUT
  5
26
 100
AcDbPlotSettings
  1

  2
 
  4

  6

 40
0.0
 41
0.0
 42
0.0
 43
0.0
 44
0.0
 45
0.0
 46
0.0
 47
0.0
 48
0.0
 49
0.0
 140
0.0
 141
0.0
 142
1.0
 143
1.0
 70
688
 72
0
 73
0
 74
5
  7

 75
16
 147
1.0
 148
0.0
 149
0.0
 100
AcDbLayout
  1
Layout2
 70
1
 71
2
 10
0.0
 20
0.0
 11
420.0
 21
297.0
 12
0.0
 22
0.0
 32
0.0
 14
0.0
 24
0.0
 34
0.0
 15
0.0
 25
0.0
 35
0.0
 146
0.0
 13
0.0
 23
0.0
 33
0.0
 16
1.0
 26
0.0
 36
0.0
 17
0.0
 27
1.0
 37
0.0
 76
0
 330
23
  0
ENDSEC
  0
EOF
